Magia Blanca (intro), Turf (tablatura)

Autor: jose_m | 37774 visualizaciones

Intro

e|----------------------------------|
B|----------------------------------|
G|----------------------------------|
D|----------------------------------|
A|1/2-2-2-2-2-------------------2-0-|
E|------------5--5-5-3-5--3-5-3-----|

e|----------------------------------------|
B|----------------------------------------|
G|----------------------------------------|
D|----------------------------------------|
A|1/2-2-2-2-2-5--5-5-3-2-0--------2-0---0-|
E|--------------------------3-5-3-----3---|

e|----------------------------------|
B|----------------------------------|
G|----------------------------------|
D|----------------------------------|
A|1/2-2-2-2-2-------------------2-0-|
E|------------5--5-5-3-5--3-5-3-----|

e|----------------------------------------|
B|----------------------------------------|
G|----------------------------------------|
D|----------------------------------------|
A|1/2-2-2-2-2-5--5-5-3-2-0--------2-0---0-|
E|--------------------------3-5-3-----3---|
Calificar esta versión:
Aviso: Este fichero es trabajo propio de su transcriptor y representa su interpretación personal de la canción. El material contenido en esta página es para exclusivo uso privado, por lo que se prohibe su reproducción o retransmisión, así como su uso para fines comerciales.