Esa Luz, Turf (tablatura)

Autor: Anónimo | 40716 visualizaciones



Intro: D - G A# (x2)

D                Bm
Hoy me encuentro sin razón
F#m           G
bajo un suelo líquido
D             Bm
contemplando este jardín
F#m          A
que no tiene fin.

Un intenso resplandor
que pasa a través de mí.
Me divide el cuerpo en dos
y empiezo a subir.

G
En el aire están mis pies A A#
siempre a punto de caer.

D        G      A#
Es esa luz que tenés alrededor
D  G   A#
Es esa luz

Me remonta a la niñez
donde está lo que soñé.
Puedo ver con claridad
que yo estoy ahí.

En lava volcánica,
en un sueño químico,
en silencio celestial,
comienzo a nacer.

Me abro paso ante el dolor
que vive dentro de mí.

Es esa luz que tenés alrededor (x3)
Es esa luz

Instrumental de cuerdas
Arreglo para guitarra:

   D            Bm   F#m            G        D       Bm
F#m             A7
e-----------------------------------7--------------------------------------9
B-7----7--10--------7-----7--10---------7----7--10--------7-----7--10-------
G---9----------7--------9-------------7-----9----------7-------9------------

  D                 Bm F#m              G
e----------------14---------------------7----
B--15--14--15-------12--7-----7--10----------
G--------------------------9--------------7--

    D         Bm  F#m     A7  G        A     A#
e-------------7---------------------------------
B-7----7--10-----7---7----8(sostener hasta)11---
G---9--------------9----9-----------------------


Es esa luz que tenés alrededor
Es esa luz

(Say No More sings)
D          Em
Es...esa, esa
D
Es esa luz
        Em
Es esa luz
Es esa luz
D - G A#

Es esa luz que tenés alrededor (x4)

   D          A#           F E7
D----------7--10--8---------------
A--9--10-------------8--7---------
E-----------------------------10--
                                   que tenés alrededor
Se repite hasta fundirse en 'Rhapsody in blue





Calificar esta versión:
Aviso: Este fichero es trabajo propio de su transcriptor y representa su interpretación personal de la canción. El material contenido en esta página es para exclusivo uso privado, por lo que se prohibe su reproducción o retransmisión, así como su uso para fines comerciales.