Cuatro Personalidades, Turf (acordes)

Autor: ass_rock | 28632 visualizaciones

bbbbmcsosffsosgsos
Introducción:
[BbmF] [tocados de esta forma: [escuchar la cancion]]

e--1-1-1-1-1-1-1-1----1-1-1-1-1-1-1-1------------------
B--2-2-2-2-2-2-2-4----1-1-1-1-1-1-1-1------------------
G--3-3-3-3-3-3-3-X----2-2-2-2-2-2-2-3------------------
D--3-3-3-3-3-3-3-3----3-3-3-3-3-3-3-X------------------
A--1-1-1-1-1-1-1-1----3-3-3-3-3-3-3-3------------------
E---------------------1-1-1-1-1-1-1-1------------------


 Bbm                      F 
Tengo que contarte algo,
 Bbm                         F
veo que cosas que no están acá
            F#                        F
y tengo el vicio de perderme en las alturas
            F#                    F
porque en tierra no puedo ni caminar.

 
       Bbm
Tengo cuatro personalidades,
F
uno, dos, tres, cuatro,
  Bbm                  F
cuatro pasaportes falsos.
         F#                      F
Voy escuchando lo que dice mi destino
        F#                  F 
pero a veces no lo puedo evitar

                Bb
y empiezo a recordar
                  F
que bueno era el amor,
                 Bb
quiero volver a amar
        F#                   C#
una vez más me vuelvo a equivocar
               G#
no puedo descifrar,
            F#
cual es la señal 
      F#  G# F# G# Bbm F#  G#  F# C#
que enciende el fuego  de nuestro amor.


Intro y mismos acordes del verso

¿Qué hay debajo del disfraz?
[veo que eso nunca lo sabrás]
quién se esconde
y quién es que está acá.

Estoy cansado de vivir en tu locura, 
pero hay veces que no lo puedo evitar.

Estribillo [iguales acordes]

Acordes antes del solo de trompeta [ver despues]

Solo de trompeta [BbmF] x2

Estoy cansado.... 


Final [igual base para antes del solo de vientos]


e--4-4-4---4-4------4-4-4---4-4------4-4-4---4-4------4-4-4---4-4-
B--6-6-6---7-6------6-6-6---7-6------4-4-4---4-4------6-6-6---7-6-
G--6-6-6---6-6------6-6-6---6-6------5-5-5---5-5------6-6-6---6-6-
D--6-6-6---6-6------6-6-6---6-6------6-6-6---6-6------6-6-6---6-6-
A--4-4-4---4-4------4-4-4---4-4------6-6-6---6-6------4-4-4---4-4-
E------------------------------------4-4-4---4-4------------------ 
Calificar esta versión:
Aviso: Este fichero es trabajo propio de su transcriptor y representa su interpretación personal de la canción. El material contenido en esta página es para exclusivo uso privado, por lo que se prohibe su reproducción o retransmisión, así como su uso para fines comerciales.