El Alma En Dos, Trotsky Vengarán (acordes)

Autor: mauricioV8 | 28902 visualizaciones

abmdee7fsosm
Intro

E-2-0-2-4-5-5---------0-0---------2-2-------------5-
A-------------5-5-4-4-----5-5-4-4-----5-5-4-5-4-2---
D---------------------------------------------------
B---------------------------------------------------
G---------------------------------------------------
E---------------------------------------------------

--5---------0-0----------2-2-------------5---
----5-5-4-4------5-5-4-4-----5-5-4-5-4-2-----
---------------------------------------------
---------------------------------------------
---------------------------------------------
---------------------------------------------

A
No puedo entender
        F#m
Quizás nunca lo haré
         D             A 
Pero te juro que esta vez
     E           E7
Esperaba mejor suerte

Tus besos de hotel
El perfume de tu piel
Quiero tenerlo Y nunca
Aprendo a perder

Bm           D           A  F#m
Alto es el precio de querer
Bm     D                E  E7
A un amor cuando es infiel

Me gusta pensar
Que algún día volverás
Que estas arrepentida
Que ya nada será igual

Pero vuelvo a escuchar
La mas cruda realidad
En boca de amigos
que ya no vuelven mas

Alto es el precio de querer
A un amor cuando es infiel

A             E
Abierta la herida
 F#m           D          A 
juro que esta vez aprenderé
   E             F#m
a no dejarte volver
    D
por mas que extrañe
      A          E
tus piernas, tu risa
     F#m     D             A 
tus manos rayándome de pasión
    E              F#m
drogándome con tu voz
     D                  A 
partiéndome el alma en dos.

Intro/Punteo

E-5-5--------0-0---------2-2-------------5-
A----5-5-4-4-----5-5-4-4-----5-5-4-5-4-2---
D------------------------------------------
B------------------------------------------
G------------------------------------------
E------------------------------------------

--5---------0-0----------2-2-------------5---
----5-5-4-4------5-5-4-4-----5-5-4-5-4-2-----
---------------------------------------------
---------------------------------------------
---------------------------------------------
---------------------------------------------

No puedo entender
Quizás nunca lo haré
Pero te juro que esta vez
Esperaba mejor suerte

Tus besos de hotel
El perfume de tu piel
Quiero tenerlo Y nunca
Aprendo a perder

Alto es el precio de querer
A un amor cuando es infiel

Abierta la herida
juro que esta vez aprenderé
a no dejarte volver
Por mas que extrañe
tus piernas, tu risa
tus manos rayándome de pasión
drogándome con tu voz
partiéndome el   [BIS]
ALMA EN DOS

INTRO/PUNTEO

E-5-5--------0-0---------2-2-------------5-
A----5-5-4-4-----5-5-4-4-----5-5-4-5-4-2---
D------------------------------------------
B------------------------------------------
G------------------------------------------
E------------------------------------------

--5---------0-0----------2-2--------------5---
----5-5-4-4------5-5-4-4-----5-5-4-5-4-2--7---
----------------------------------------------
----------------------------------------------
----------------------------------------------
----------------------------------------------

Extraído de www.lacuerda.net
Calificar esta versión:
Aviso: Este fichero es trabajo propio de su transcriptor y representa su interpretación personal de la canción. El material contenido en esta página es para exclusivo uso privado, por lo que se prohibe su reproducción o retransmisión, así como su uso para fines comerciales.