Alas Negras, Trotsky Vengarán (acordes)

Autor: F43I4N | 29925 visualizaciones

cdemg
Alas negras, mariposa de la noche
llevame de vuelta hasta mi hogar

G       C      G             C
    Oh oh         Oh oh oh oh
G       C      G             C   D...
    Oh oh         Oh oh oh oh

      G           C          G
Alas negras, mariposa de la noche
                Em           D
dime cuanto falta para llegar
      G             C            G
hace rato estoy perdido en este bosque
              D            G
y la luna no me quiere ayudar

ojos de bestia, mariposa de la noche
enséñame a esconderme de los demás
quiero que todos me tengan miedo
así el mio puedo disimular

     C       G
el viento, que silba entre las ramas
 C        G
ramas, que esconden mil ojos
C           G                  D
ojos, que brillan en la oscuridad

      G           C          G      Em
alas negras, mariposa de la noche
  G          D                G
llevame de vuelta hasta mi hogar

e|-------------------------------------------------------------------
B|-------------------------------------------------------------------
G|-0-2-4-0-------5-5-4-0----------0-2-4-4-4-0---5-5-5--4---2---------
D|----------0-2-----------0-2---------------------------------4-2-0--
A|-------------------------------------------------------------------
E|-------------------------------------------------------------------

e|-------------------------------------------------------------------
B|-------------------------------------------------------------------
G|-0-2-4-0-------5-5-4-0----------0-2-4-4-4-0---2-2-2----------------
D|----------0-2-----------0-2--------------------------4-5----5/7-5--
A|-------------------------------------------------------------------
E|-------------------------------------------------------------------


ojos de bestia, mariposa de la noche
enséñame a esconderme de los demas
quiero que todos me tengan miedo
así el mio puedo disimular

el viento, que silba entre las ramas
ramas, que esconden mil ojos
ojos, que brillan en la oscuridad

alas negras, mariposa de la noche
llevame de vuelta hasta mi hogar

alas negras, alas negras
alas negras

alas negras, alas negras
alas negras, de vuelta hasta mi hogar

Comentarios del colaborador: TKY-VGN

Calificar esta versión:
Aviso: Este fichero es trabajo propio de su transcriptor y representa su interpretación personal de la canción. El material contenido en esta página es para exclusivo uso privado, por lo que se prohibe su reproducción o retransmisión, así como su uso para fines comerciales.