Junior Club, Tronic (bajo)

Autor: Anónimo | 15940 visualizaciones



amigos primero ke nada escuchen bien la cancion y luego tokenla
y si les pongo coro1 coro2 y coro3 es porke son un solo coro pero
diferente forma de tokar


Coro1

G----------------
D----------------
A-----4~-5~-2~---
E--2~------------

G------------------------------
D------------------------------
A----------4-4-4-4-5-5-5-5-2---
E--2-2-2-2---------------------

G------------------------------------
D------------------------------------
A----------4-4-4-4-5-5-5-5-2-2-2-2---
E--2-2-2-2---------------------------

G------------------
D------------------
A--555444----------
E--------2222222---

Verso x 4

G------------------------------------
D------------------------------------
A----------2-2-2-2-9-9-9-9-4-4-4-4---
E--2-2-2-2---------------------------

Pre-Coro
G------------------------------------
D------------------------------------
A--6-6-6-6-2-2-2-2-9-9-9-9-4-4-4-4---
E------------------------------------

G------------------------------------
D------------------------------------
A--6-6-6-6-2-2-2-2-4-4-4-4-4-4-4-4---
E------------------------------------
Coro2
G------------------------------------
D------------------------------------
A----------4-4-4-4-5-5-5-5-2-2-2-2---
E--2-2-2-2---------------------------

G------------------------------------
D------------------------------------
A----------4-4-4-4-5-5-5-5-2-2-2-2---
E--2-2-2-2---------------------------

G------------------------------------
D------------------------------------
A----------4-4-4-4-5-5-5-5-2-2-2-2---
E--2-2-2-2---------------------------

G------------------
D------------------
A--555444----------
E--------2222222---

se repite
Verso x 4
Pre-Coro

Coro3

G------------------------------------
D------------------------------------
A----------4-4-4-4-5-5-5-5-2-2-2-2---
E--2-2-2-2---------------------------

G------------------------------------
D------------------------------------
A----------4-4-4-4-5-5-5-5-2-2-2-2---
E--2-2-2-2---------------------------

G----------------
D----------------
A-----4~-5~-2~---
E--2~------------

y termina con el Coro2

weno ahi les dejo el bass de JUNIOR CLUB una kancion bn vkn
y si kieren q sake alguna kancion
me dicen en mi correo       [email protected]





Calificar esta versión:
Aviso: Este fichero es trabajo propio de su transcriptor y representa su interpretación personal de la canción. El material contenido en esta página es para exclusivo uso privado, por lo que se prohibe su reproducción o retransmisión, así como su uso para fines comerciales.