Cobrador Humano, Tronic (bajo)

Autor: Anónimo | 17045 visualizaciones



aki les dejo una kancion q vale la pena xD
escuchen bn la cancion para sakarla bn
* = armonikos repetirlos oyendo bien los tiempos de la kancion

Intro X 2

G------------------------------------
D------------------------------------
A----------7---------7---------7-----
E--777-555---777-555---777-555---7---

Verso 1

Llevanos papito llevanos por gamba llevanos pa aki pa alla
G------------------------------------
D------------------------------------
A----------7---------7---------7-----
E--777-555---777-555---777-555---7---

No tenemos dinero tenemos una tranza llevanos pa aki pa alla
G------------------------------------
D------------------------------------
A----------7---------7---------7-----
E--777-555---777-555---777-555---7---

Coro

Noooohh el cobrador
G----------------------
D----------------------
A—-5-5-7-7-------------
E----------7-7*-7-7*---

Noooohh el cobrador
G----------------------
D----------------------
A—-5-5-7-7-------------
E----------7-7*-7-7*---

Noooohh el cobrador
G------------
D------------
A—-5-5-7-7---
E------------

Verso 2

Llevanos papito estamos en casa esta gamba es para ti
G------------------------------------
D------------------------------------
A----------7---------7---------7-----
E--777-555---777-555---777-555---7---

No tenemos dinero queremos choco panda llevanos pa aki pa alla
G------------------------------------
D------------------------------------
A----------7---------7---------7-----
E--777-555---777-555---777-555---7---

Coro

Noooohh el cobrador
G----------------------
D----------------------
A—-5-5-7-7-------------
E----------7-7*-7-7*---

Noooohh el cobrador
G----------------------
D----------------------
A—-5-5-7-7-------------
E----------7-7*-7-7*---

Noooohh el cobraaahhhh
G------------
D------------
A—-5-5-7-7---
E------------

En el solo el bajo hace esto y lo repite 3 veces

G----------------------------------------------------
D----------------------------------------------------
A—-----------------555555555555555-777777777777777---
E--777777777777777-----------------------------------

Llevanos papito llevanos por gamba llevanos pa aki pa alla
G------------------------------------
D------------------------------------
A----------7---------7---------7-----
E--777-555---777-555---777-555---7---

weno eso es too cualkier cosa a mi correo   [email protected]
NOTICIAS: el nuevo bajista de tronic es baktrik
nos vemos





Calificar esta versión:
Aviso: Este fichero es trabajo propio de su transcriptor y representa su interpretación personal de la canción. El material contenido en esta página es para exclusivo uso privado, por lo que se prohibe su reproducción o retransmisión, así como su uso para fines comerciales.