Cabrones, Tronic (tablatura)

Autor: Anónimo | 38412 visualizaciones



Holaaaa :D mi segundo aporte en laCuerda.net :3
Esta tab se puede mejorar muchísimo, ojalá suban la modificación =)
la hice de acuerdo a como toqué en el video de mi
canal Youtube/boriisrockx
=)
Por favor califíquenla..!!, =) Muchas gracias a los broders
que aportan d alguna u otra forma :P. GRANDE TRONIC :D!

Tab!:

Intro1:
|-----------------------------------------|
|-----------------------------------------|
|-0-7-0-8-x-x-x-x-0-7-0-8-x-x-x-10-10-12|(x2)
|-----------------------------------------|
|-----------------------------------------|
|-----------------------------------------|

Intro2:
|--------------------------------|----|---------------------------|
|--------------11-10-------------|----|-------------11-10---------|
|-0-7-0-8-7-0--------0-10-10-12--|(x3)|-0-7-0-8-7-0-------10--8-7~|
|--------------------------------|----|---------------------------|
|--------------------------------|----|---------------------------|
|--------------------------------|----|---------------------------|

Verso1:
|----------------------|
|-11-10----------------|
|-------12-10----------|
|-------------13--12~~-|(x2)
|----------------------|
|----------------------|

Verso2(Guitarra melódica*):
|-----------------|------------------------|
|-----------------|-11-10------------------|
|-----------------|-------12-------14------|
|-12(x16)-16(x16)-|----------12---12----15-|
|-----------------|------------------------|
|-----------------|------------------------|

Repite Intro*

Verso1*
Verso2*

Precoro: "El perdedor queda atrás..."
|----------------------------|----|-------------------------------|
|-15-------------------------|----|------------13-13-----------11|
|---12~-1212---------------12|----|14-14-15-15-------10-10-12~~12|
|------------(12)-(14)-15----|(x3)|-------------------------------|
|----------------------------|----|-------------------------------|
|----------------------------|----|-------------------------------|

Coro: "Oocho años van.." "de... corazón.."
|--------------------------|----|------------|
|--------------------------|----|------------|
|-------------12-----8-----|----|7-----5-----|
|8-----12-----12(x16)8(x16)|(x2)|7(x16)5(x16)|
|8(x16)12(x16)10-----6-----|----|5-----5-----|
|6-----10------------------|----|------------|

Verso1*

Verso2*

Precoro*

Coro*

Break:
||------------xxx|------------xxx||
||------------xxx|------------xxx||
||------------xxx|------------xxx||(x2)
||-----------3xxx|-----------5xxx||
||555533335551xxx|555533335553xxx||
||333311113331xxx|333311113333xxx||

|----------------------------------------------------------------|
|-----------------------------------------------------15---------|
|12(x16)-14(x16)-15(x16)-17(x16)-12*(x16)-12-12-12-12------12-12~|
|----------------------------------------------------------------|
|----------------------------------------------------------------|
|----------------------------------------------------------------|

"Pre-Coro"* y Fiiin =)

Saaaludos!
Si quieres visita mi canal en youtube :D
www.youtube.com/boriisrockx
cualquier duda, consulta, acotación :) a mi canal o
a mi correo =) o twitter/boriisrock92 :D ^^

[email protected] :)

Cambio y fuera!





Calificar esta versión:
Aviso: Este fichero es trabajo propio de su transcriptor y representa su interpretación personal de la canción. El material contenido en esta página es para exclusivo uso privado, por lo que se prohibe su reproducción o retransmisión, así como su uso para fines comerciales.