Amazander, Tronic (bajo)

Autor: Anónimo | 33635 visualizaciones



WENO LO KE PUEDO COMENTAR DE ESTA CANCION
ES KE ES UNA DE SUS KANCIONES MORBOSASS KE TIENELA BANDA TRONIC
ASI COMO MUCHO HUMO Y OTRASY WENO SIN MAS KE DECIR
LES DEJO LA CANCION Y KUALKIER COSA A MI CORREO [email protected]

*= VARIAS VECES

tronic - amazander

INTRO

G-------------------
D-----4----4----4---
A--555--555--555----
E-------------------

G--------------------------------------------
D-----444466---444466---444466---444466------
A--555------555------555------555------555---
E--------------------------------------------

VERSO

G-----------------------------------------
D---------------------99999999-77776666---
A--999999999-55555555---------------------
E-----------------------------------------

G------------------------------------
D---------------------99999999-11*---
A--999999999-55555555----------------
E------------------------------------

CORO X2

G--------------------------------------------------
D--12*-9*------------9-------9-11-14--12*-9*-11*---
A----------9-9-11-12---12-12-----------------------
E--------------------------------------------------

INTRO

G------------------------------------
D-----4----4----444466---444466------
A--555--555--555------555------555---
E------------------------------------

se repite

VERSO
CORO X2

termina aciendo gritos
en la parte del
INTRO

G-------------------
D-----4----4----4---
A--555--555--555----
E-------------------

G--------------------------------------------------------------
D-----444466---444466---444466---444466---444466---444466--4---
A--555------555------555------555------555------555------55----
E--------------------------------------------------------------

weno eso es too saludosa toos y tan zolo rockeen brother´s!!!





Calificar esta versión:
Aviso: Este fichero es trabajo propio de su transcriptor y representa su interpretación personal de la canción. El material contenido en esta página es para exclusivo uso privado, por lo que se prohibe su reproducción o retransmisión, así como su uso para fines comerciales.