20 Por Ciento, Tronic (tablatura)

Autor: olidata176 | 31239 visualizaciones



INTRO
1|----------------------------------------------------------------------------------|
2|----------------------------------------------------------------------------------|
3|----------11-11-11----------11-11-11----------12-12-12-12-12-12-12-11-11-11-11-11-|
4|-12-12-12----------12-12-12----------12-12-12-------------------------------------|
5|----------------------------------------------------------------------------------|
6|----------------------------------------------------------------------------------|

1|-----------------------------------------------------------------------------------------|
2|-----------------------------------------------------------------------------------------|
3|----------11-11-11----------11-11-11----------12-12-12-12-12-12-12-----------------------|
4|-12-12-12----------12-12-12----------12-12-12----------------------11-11-11-11-11-11-11-9|
5|-----------------------------------------------------------------------------------------|
6|-----------------------------------------------------------------------------------------|

VERSO
1|-------------------------------------------------------------------------------------|
2|-------------------------------------------------------------------------------------|
3|---------------------------------------------------------------------7-------9-------|
4|-12----9----12----9----11----8----11----8---5------------------------7-(x16)-9-(x16)-|
5|--------------------------------------------5-(x32 rasgueteo rapido)-5-------7-------|
6|--------------------------------------------3----------------------------------------|

CORO
1|--------------------------------------------------------------------|
2|--------------------------------------------------------------------|
3|--------4-----7------9----------------------------------------------|
4|-5------4(x8)-7-(x8)-9-(x8)--(todo eso tres veces)-5-------4--------|
5|-5-(x8)-2-----5------7-----------------------------5-(x16)-4-(x16)--|
6|-3-------------------------------------------------3-------2--------|

SOLO
1|----------------------------------------------------------------------------------|
2|----------------------------------------------------------------------------------|
3|------------11-12-11---------------11-12-11--------12--11-----------12--11--------|
4|-12---12-12----------12-12---12-12----------12-12----------12--11-----------11-12-|
5|----------------------------------------------------------------------------------|
6|----------------------------------------------------------------------------------|

1|--------------------------------------------------------------------------------|
2|--------------------------------------------------------------------------------|
3|-------11-12-11---------------11-12-11-------------------------9-9-9-9-9-9-9-11-|
4|-12-12----------12-12---12-12----------12-11-11-11-11-11-11-11------------------|
5|--------------------------------------------------------------------------------|
6|--------------------------------------------------------------------------------|

---------------------|
---------------------|
11-11-11-11-11-11-11-|
---------------------|
---------------------|
---------------------|

OUTRO
1|-------------|
2|-------------|
3|----------11-|
4|-12-12-12----|
5|-------------|
6|-------------|

ORDEN

INTRO
VERSO
CORO
INTRO
VERSO
CORO
SOLO
CORO
OUTRO





Comentarios del colaborador: ja

Calificar esta versión:
Aviso: Este fichero es trabajo propio de su transcriptor y representa su interpretación personal de la canción. El material contenido en esta página es para exclusivo uso privado, por lo que se prohibe su reproducción o retransmisión, así como su uso para fines comerciales.