Ashes, Trivium (tablatura)

Autor: Nico123456789 | 29016 visualizaciones



B-|-----8-------------------|--------------------------|
G-|--7-----7----7--7--7--9--|--7--9--11--9--11---------|
D-|----------9--------------|--------------------------|
A-|-------------------------|--------------------------|
E-|-------------------------|--------------------------|


E-|----------12-------------|--12------15--13--13--12--|
B-|--12--13------13--12--13-|------13------------------|
G-|-------------------------|--------------------------|
D-|-------------------------|--------------------------|
A-|-------------------------|--------------------------|
E-|-------------------------|--------------------------|

E-|----------------------12-|--------------------------|
B-|--15--13--12--13--12-----|--12------12--------9-----|
G-|-------------------------|------13---------8--------|
D-|-------------------------|--------------9-----------|
A-|-------------------------|--------------------------|
E-|-------------------------|--------------------------|

E-|-------------------------|--------------------------|
B-|--9=========-------------|--------------------------|
G-|-------------------------|--------------------------|
D-|-------------------------|--------------------------|
A-|-------------------------|--------------------------|
E-|-------------------------|--------------------------|

E-|----------12-------------|--12------15--13--13--12--|
B-|--12--13------13--12--13-|------13------------------|
G-|-------------------------|--------------------------|
D-|-------------------------|--------------------------|
A-|-------------------------|--------------------------|
E-|-------------------------|--------------------------|

E-|----------------------12-|--------------------------|
B-|--15--13--12--13--12-----|--12------12-----------9--|
G-|-------------------------|------13------------8-----|
D-|-------------------------|--------------8--9--------|
A-|-------------------------|--------------------------|
E-|-------------------------|--------------------------|

E-|-------------------------|
B-|--9=========-------------|
G-|-------------------------|
D-|-------------------------|
A-|-------------------------|
E-|-------------------------|




Y esa es toda la canción, aunque hay más versiones, esta es la más fácil de sacar así q' ya tan avisados.
darkknight14@live.cl
cerberus14_minoxunxo@hotmail.com
metallero_14hell@hotmail.com=chile





Comentarios del colaborador: www.ultimateguitar.com

Calificar esta versión:
Aviso: Este fichero es trabajo propio de su transcriptor y representa su interpretación personal de la canción. El material contenido en esta página es para exclusivo uso privado, por lo que se prohibe su reproducción o retransmisión, así como su uso para fines comerciales.