Vencera, Tremolo (acordes)

Autor: Anónimo | 22636 visualizaciones

a5b5d5efsos5g5


Aca les va eta rola de este grupo tacneño q sorprendentemente ya a llegado a introducir su musica a la cadena de MTV.

Intro:El intro es una pichanga, no es para na dificil, solo tienes q agarrarle el ritmo y sale brabazo...checalo:..
      -----------------------------------------------------------------------------------------------------------------------12...
      ---------------------------------------------------------------10-8-----8-10-11-10-8-10-8--10-11-10-8-10-8--10-13-----------
      -11-9------9-11-12-11-9-11-9--11-11-9-----9-11-12-11-9-11-9--11----10-10-----------------10---------------10----------------
      ------12-12-----------------12-------12-12-----------------12----------------------------------------------------5-8-8------
      ----------------------------------------------------------------------------------------------------------------------------
      ----------------------------------------------------------------------------------------------------------------------------
 
No correrá sangre ni balas  será la última batalla
Bm5      A5          G5 F#5 E       G5    B5   F#5
Fuerzas del bien fuerzas del mal   se batirán hasta el final
Bm5          A5              G5 F#5 E      G5            D5  A5

2.Sé que él será el ganador por siempre, la justicia se hará y la paz venceráaaaaa....
       G5              B5      G5  F#5        G5                 B5      G5 F#5 B5
1.Vencerá, vencerá está escrito a travez de los tiempos
   Bm5     Bm5             A5         G5            A5
  Vencerá, vencerá y la tierra se sacudirá, Vencerá, vencerá para siempre Ohh
  Bm5       Bm5           A5       G5    A5   Bm5                   G5     A5                                                            
                                                              
 3. ---6-7-9--- 
 4. --------9--

[Repetir el Intro]

Fuerzas benignas victoriosas arrojarán el odio a la oscuridad
   Bm5     A5          G5 F#5   E         G5     B5        F#5  G5 A5 Bm5
con aguardiente se abriráaaaaaaaaa se sellará un triunfo más
Bm5       A5            G5     F#5 E       G5             D5  A5
 [repetir 1,2].
Esta es toda la rola: aqui estan algunos acordes q quiza no los manyen aun.: aki tan:]
 
Bm5: [0]  A5: [0]  G5: [0]  F#5: [0] B5: [0]  D5: [0] 
     [0]      [0]      [0]       [0]     [0]      [0] 
     [0]      [0]      [0]       [0]     [3]      [7] 
     [3]      [7]      [5]       [4]     [3]      [7] 
     [3]      [7]      [5]       [4]     [2]      [5]  
     [1]      [5]      [3]       [2]     [0]      [0] 
Eso es todo.chau.





Calificar esta versión:
Aviso: Este fichero es trabajo propio de su transcriptor y representa su interpretación personal de la canción. El material contenido en esta página es para exclusivo uso privado, por lo que se prohibe su reproducción o retransmisión, así como su uso para fines comerciales.