The Raising Fighting Spirit, Toshiro Masuda (tablatura)

Autor: -slsh-cj- | 27173 visualizaciones



parte 1
e|----------------------------------------------------|
b|----------------------------------------------------|
g|--------------------------7-6-----------------55-44-|
d|--------------------------7-6-----------------55-44-|
a|--------------------------5-4-----------------33-22-|
E|--000-210-521-210-000-210-----000-210-521-210-------|


e|------------------------------------------------------|
b|------------------------------------------------------|
g|-9-99-11-12-11-7-9-999-11-12-14----17-171717-19-17-16-|
d|------------------------------------------------------|
a|------------------------------------------------------|
E|------------------------------------------------------|

e|-----------------------------------------------------|
b|-----------------------------------------------------|
g|-14-12-11-12-14-16-----------------------------------|
d|--------------------10-10--99------------------------|
a|--------------------10-10--99------------------------|
E|--------------------8--8---77------------------------|

e|------------------------------------------------------|
b|------------------------------------------------------|
g|-9-99-11-12-11-7-9-999-11-12-14----17-171717-19-21-19-|
d|------------------------------------------------------|
a|------------------------------------------------------|
E|------------------------------------------------------|

e|-----------------------------------------------------|
b|-----------------------------------------------------|
g|-17-14-19-16-----------------------------------------|
d|------------------10-10--12-12-----------------------|
a|------------------10-10--12-12-----------------------|
E|------------------8--8---10-10-----------------------|

Parte 2
e|-----------------------------------------------------|
b|-----------------------------------------------------|
g|-4-4-2-4--4-4-2-4--4-4-2-4--4422--25-25-255-25-------|
d|--2--------2--------2--------------------------------|
a|-----------------------------------------------------|
E|-----------------------------------------------------|

e|-----------------------------------------------------|
b|-----------------------------------------------------|
g|-4-7-4-7/9--99-9-7-9-12-9-12/16-16161616-16-1414-----|
d|-----------------------------------------------------|
a|-----------------------------------------------------|
E|-----------------------------------------------------|

Parte 3
e|-----------------------------------------------------|
b|-5--5-8-10/15-11-10-8-10--17-15-13-12--8-10-8-10-12--|
g|-----------------------------------------------------|
d|-----------------------------------------------------|
a|-----------------------------------------------------|
E|-----------------------------------------------------|

e|-----------------------------------------------------|
b|-5--5-8-10/15-11-10-8-10--17-15-13-12-10-8--17-17-17-|
g|-----------------------------------------------------|
d|-----------------------------------------------------|
a|-----------------------------------------------------|
E|-----------------------------------------------------|





Comentarios del colaborador: esta es la cancion del manga naruto jeje y no se como hice para sacerlo bueno voten y comenten

Calificar esta versión:
Aviso: Este fichero es trabajo propio de su transcriptor y representa su interpretación personal de la canción. El material contenido en esta página es para exclusivo uso privado, por lo que se prohibe su reproducción o retransmisión, así como su uso para fines comerciales.