Right In Two, Tool (tablatura)

Autor: DAFES | 36072 visualizaciones



Artist: Tool
Title: Right in Two
Album: 10,000 Days

Equipment: Gibson Les Paul "Silverburst"
           Diezel V4 amp
           Mesa Boogie 4x12 cabinet
           Digital delay set to 1 beat or ~500ms
           Crybaby Wah pedal

Legend:  p - pull off
         h - hammer on
         / or \ - slide
        <#> - natural harmonic

Tuning: DADGBE

Time signature:  3/4 + 3/4 + 5/4
                 OR 11/4
                 OR 3/4 + 3/4 + 3/4 + 2/4 (you decide)

0:00 - 1:19
Intro (clean w/ delay)
e-|--------------------------------------------------------------|
B-|-------------------------------------------------------------*|
G-|--------------------------------------------------------------|
D-|------------7/--------------10--------------7----------12-----|
A-|--------5---------------8---------------5--------------------*|
D-|--0---------------8---------------5---------------10----------|

1:19 - 1:42
Riff 1 (all palm muted)
e-|--------------------------------------------------------------|
B-|-------------------------------------------------------------*|
G-|------------7---------------7---------------7-----------------|
D-|--------------------------------------------------10----------|
A-|--------8---------------8---------------8--------------10----*|
D-|--0---------------0---------------0---------------------------|

1:42 - 2:22
Riff 2 (every other note is a harmonic)
e-|--------------------------------------------------------------|
B-|-------------------------------------------------------------*|
G-|----------------<7>-------------------------------------------|
D-|--------------------------<7>--------12-----------------------|
A-|------<7>----------------------------------------------------*|
D-|--0---------8---------5---------10----------------------------|

2:22 - 2:28
Variation on Riff 2 (delay off)
e-|--------------------------------------------------------------|
B-|--------------------------------------------------------------|
G-|--------------------------------------------------------------|
D-|--------------------------------------------------------------|
A-|-------0----1--------------3~------5h6---5~-------------------|
D-|--0--------------3----5---------------------------------------|

2:28 - 3:12
(Back to Riff 1)

3:12 - 3:38
Riff 3 (play one measure, then play Intro)
e-|--------------------------------------------------------------|
B-|-------------------------------------------------------------*|
G-|--------------------------------------------------------------|
D-|--------------------------------------------------------------|
A-|-----------0-----1-----3--1----------3----7----5-------------*|
D-|--0-----5-----0--------------0--5-----------------------------|

3:38 - 4:00
Chorus - Distortion
e-|--------------------------------------------------------------|
B-|-------------------------------------------------------------*|
G-|--------------------------------------------------------------|
D-|--7----7--7----10-------12----12----7-------------------------|
A-|--5----5--5----8--------10----10----5------------------------*|
D-|--0----0--0----8--------10----10----5-------------------------|

4:00 - 5:23
Badass tabla solo

5:23 - 5:34
Bridge (distortion)
e-|--------------------------------------------------------------|
B-|-------------------------------------------------------------*|
G-|--------------------------------------------------------------|
D-|--------------------------------------------------------------|
A-|-------------------------------------------------------------*|
D-|--0-----10--0--10--0-----10--0--10--0-----10--0--10--0----10~-|

5:34 - 5:45
Bridge Riff 2
e-|--------------------------------------------------------------|
B-|-------------------------------------------------------------*|
G-|--------------------------------------------------------------|
D-|--------------------------------------------------------------|
A-|---------------3---------------3---------------3-----3~------*|
D-|--0-----2-3-5-----0-----2-3-5-----0-----2-3-5-----0-----------|

5:45 - 6:04
Bass & Drum breakdown

6:04 - 6:15   {palm muted}
e-|--------------------------------------------------------------
B-|--------------------------------------------------------------
G-|--------------------------------------------------------------
D-|--------------------------------------------------------------
A-|--------------------------------------------------------------
D-|--0-----10-10-0-0-10-10-0-----10-10-0-0-10-10-0-----10-10-0-0-

e-|--------------------------------------------------------------|
B-|-------------------------------------------------------------*|
G-|--------------------------------------------------------------|
D-|--------------------------------------------------------------|
A-|-------------------------------------------------------------*|
D-|--10-10-0----10~----------------------------------------------|

6:15 - 6:24
e-|--------------------------------------------------------------
B-|--------------------------------------------------------------
G-|--------------------------------------------------------------
D-|--------------------------------------------------------------
A-|-------0h3--5p3--5p3-------0h3--5p3--5p3-------0h3--5p3--5p3--
D-|--0--------------------0-------------------0------------------

e-|--------------------------------------------------------------|
B-|-------------------------------------------------------------*|
G-|--------------------------------------------------------------|
D-|--------------------------------------------------------------|
A-|-------3~----------------------------------------------------*|
D-|--0-----------------------------------------------------------|

6:24 - 6:34
Make vocal sounds w/ wah pedal
e-|--------------------------------------------------------------|
B-|-------------------------------------------------------------*|
G-|--------------------------------------------------------------|
D-|--------------------------------------------------------------|
A-|---3---5-------3---5-------3---5-------3---5-----------------*|
D-|--------------------------------------------------------------|

6:34 - 6:44
(slowly roll upwards on the wah towards the treble side)
e-|--------------------------------------------------------------|
B-|-------------------------------------------------------------*|
G-|--------------------------------------------------------------|
D-|--------------------------------------3-----------------------|
A-|------3---5-------6-------3---5-----------5------------------*|
D-|--0-----------0-------0-----------0---------------------------|

6:44 - 6:59
Same lick but w/ power chords (wah off)
e-|--------------------------------------------------------------|
B-|-------------------------------------------------------------*|
G-|--------------------------------------------------------------|
D-|------5---7-------8-------5---7------10---7-------------------|
A-|------3---5-------6-------3---5-------8---5------------------*|
D-|--0-----------0-------0-----------0---------------------------|

6:59 - 7:14
Play Bridge

7:14 - 7:20
Bridge Riff 2

7:20 - 7:25
Riff 3 (play just once)

7:25 - 7:33
e-|--------------------------------------------------------------|
B-|-------------------------------------------------------------*|
G-|--------------------------------------------------------------|
D-|------------7/--------------10---------5/-----7---------------|
A-|--------5---------------8--------------3/-----5--------------*|
D-|--0---------------8---------------3-----------5---------------|

7:33 - 7:52
Chorus

7:53
Intro (1 time)

7:58 - 8:20
Riff 1





Calificar esta versión:
Aviso: Este fichero es trabajo propio de su transcriptor y representa su interpretación personal de la canción. El material contenido en esta página es para exclusivo uso privado, por lo que se prohibe su reproducción o retransmisión, así como su uso para fines comerciales.