Nature Of Experiment, Tokyo Police Club (tablatura)

Autor: linkyn | 36591 visualizaciones

|----12---------------------12----------------------------|
|------------14-15-14---------------14-15-14--------------|
|-11------13-------------11------13-----------------------|
|---------------------------------------------------------|
|---------------------------------------------------------|
|---------------------------------------------------------|

|----12---------------------12----------------------------|
|------------14-15-14---------------14-15-14--------------|
|-11------13-------------11------13-----------------------|
|---------------------------------------------------------|
|---------------------------------------------------------|
|---------------------------------------------------------|

|----------17----17----16----16----14----14----14----14----14---
|-14-17-14----14----14----14----14----14----14----14----14----14|
|---------------------------------------------------------------|
|---------------------------------------------------------------|
|----------------------------------------------------------------
|---------------------------------------------------------------|

|-14----------12------------------12---------------17----17----|
|----14--------------14-15-14------------14-17-14-----14----14--|
|----------11-----13-----------11-----13-------------------------
|----------------------------------------------------------------
|----------------------------------------------------------------
|---------------------------------------------------------------|

|-16----16----14----14----14----14----14----14----14----14----14-
|----14----14----14----14----14----14----14----14----14----14--14
|-------------------------------------------------|
|---------------------------------------------------------|
|---------------------------------------------------------|
|---------------------------------------------------------|

|----12---------------------12----------------------------|
|------------14-15-14---------------14-15-14--------------|
|-11------13-------------11------13-----------------------|
|---------------------------------------------------------|
|---------------------------------------------------------|
|---------------------------------------------------------|

|----12---------------------12----------------------------|
|------------14-15-14---------------14-15-14--------------|
|-11------13-------------11------13-----------------------|
|---------------------------------------------------------|
|---------------------------------------------------------|
|---------------------------------------------------------|

|----------17----17----16----16----14----14----14----14----14--
|-14-17-14----14----14----14----14----14----14----14----14---14|
|--------------------------------------------------------------|
|--------------------------------------------------------------|
|--------------------------------------------------------------
|--------------------------------------------------------------|


|-14----------12------------------12---------------17----17----|
|----14--------------14-15-14------------14-17-14-----14----14-|
|----------11-----13-----------11-----13-----------------------
|--------------------------------------------------------------
|--------------------------------------------------------------
|--------------------------------------------------------------|

|16----16----14----14----14----14----14----14----14----14---14-|
|---14----14----14----14----14----14----14----14----14----14--14
|----------------------------------------------------------|
|---------------------------------------------------------|
|---------------------------------------------------------|
|---------------------------------------------------------|

|----------------------------------------------------|
|------7-7-9-9-10-10-9-9-7-7-------------------------------|
|--6-6-----------------------6-6-6-6--(x8)------------------|
|---------------------------------------------------------|
|---------------------------------------------------------|
|---------------------------------------------------------|


|-17-17-17-17-17-17-17-17-19-19-19-19-19-19-19-19-21-21-21-21-21-21-21-21-21-21-21--19-15-|-misma cuerda
|----------------------------------------------------|
|------------------------------------------------------|
|---------------------------------------------------------|
|---------------------------------------------------------|
|---------------------------------------------------------|

|-17-17-17-17-17-17-17-17-19-19-19-19-19-19-19-19-21-21-21-21-21-21-21-21-21-21-21--19-15-17s0-| misma cuerda
|----------------------------------------------------|
|------------------------------------------------------|
|---------------------------------------------------------|
|---------------------------------------------------------|
|---------------------------------------------------------|
Calificar esta versión:
Aviso: Este fichero es trabajo propio de su transcriptor y representa su interpretación personal de la canción. El material contenido en esta página es para exclusivo uso privado, por lo que se prohibe su reproducción o retransmisión, así como su uso para fines comerciales.