Freunde Bleiben, Tokio Hotel (tablatura)

Autor: ziinthiia | 21601 visualizaciones

Intro
G|----------------------------------|
D|----------------------------------|
A|---5-5-7-7-5-2-0-9-9-10-10-9-5-4--| X2
E|----------------------------------|

Pre-Verse
G|----------------------------------|
D|----------------------------------|
A|-/121212121212--------------------|
E|----------------------------------|


Verse

G|----------------------------------------------|
D|----------------------------------------------|
A|-5-5-5-5-5---------5-5-5-5-5/-12-12-12-12-12--|
E|----------3-3-3-3-3---------------------------|

Pre-Chorus


G|----------------------------------|
D|--------1212121212----------------|
A|-999999------------121212121212---|X3
E|----------------------------------|

G|----------------------------------|
D|--------1212121212----------------|
A|-999999------------12121212-------|
E|----------------------------------|


G|----------------------------------|
D|----------------------------------|
A|-999999-10101010-9999-------------|
E|----------------------------------|

Chorus

G|--------------------------------|
D|--------------------------------|
A|-555555-77777-222222-9-9-10-9---|X2
E|--------------------------------|

G|--------------------------------|
D|--------------------------------|
A|-555555-77777-222222------------|
E|--------------------------------|

G|--------------------------------|
D|--------------------------------|
A|-555555-77777-222222-9-9-10-9---|
E|--------------------------------|

  
G|----------------------------------|
D|----------------------------------|
A|-5-5-7-7-5-2-0-9-9-10-10-9-5-4----| X2
E|----------------------------------|

Pre-Verse 2

G|--------------------------------|
D|--------------------------------|
A|-9/-12-12-11-11-9-9-7-----------|
E|--------------------------------|


Verse 2

G|-------------------------------------------|
D|-------------------------------------------|
A|-5-5-5-5-5---------5-5-5-5-5/-7-7-7-7-7----|
E|----------3-3-3-3-3------------------------|

G|-------------------------------|
D|--12-12------------------------|
A|--------12-12-7-7-5------------|
E|--------------------------------|

Pre-Chorus


G|----------------------------------|
D|--------1212121212----------------|
A|-999999------------121212121212---|X3
E|----------------------------------|

G|----------------------------------|
D|--------1212121212----------------|
A|-999999------------12121212-------|
E|----------------------------------|


G|----------------------------------|
D|----------------------------------|
A|-999999-10101010-9999-------------|
E|----------------------------------|

Chorus

G|--------------------------------|
D|--------------------------------|
A|-555555-77777-222222-9-9-10-9---|
E|--------------------------------|

G|--------------------------------|
D|--------------------------------|
A|-555555-77777-222222------------|
E|--------------------------------|

G|--------------------------------|
D|--------------------------------|
A|-555555-77777-222222-9-9-10-9---|
E|--------------------------------|

G|----------------------------------|
D|----------------------------------|
A|-5-5-7-7-5-2-0-9-9-10-10-9-5-4----| X2
E|----------------------------------|
Calificar esta versión:
Aviso: Este fichero es trabajo propio de su transcriptor y representa su interpretación personal de la canción. El material contenido en esta página es para exclusivo uso privado, por lo que se prohibe su reproducción o retransmisión, así como su uso para fines comerciales.