Forgotten Children, Tokio Hotel (tablatura)

Autor: Xx_thevampiremurder_xX | 22997 visualizaciones

riff 1:


-----------------------------------------
----7--7----7--7---7--7----7--7----------
--5--5----5--5---------------------------
-----------------6--6----6--5------------
-----------------------------------------
-----------------------------------------
el riff 1 se repite varias veces y en la ultima de todas acaba asi:

----------------------
----------------------
----7--7-------9------
-----------9----------
--6--6---7---7--------
----------------------

riff 2:

----------------------------------------------
------------------------------------0---------
------------1---------1-----------4-----------
---6----------2---------2-------4-------------
-4---7----0-------------------2---------------
--------------------0-------------------------

riff 3: (se repite varias veces)

----------------------------
----------------------------
----------------------------
------6-----6---------------
--6-6-6-6-6-6---------------
--4-4-4-4-4-4---------------

riff 4:

------------------------------------
------------------------------------
--4-4--2-2---1-1--4--4-4-4----------
--4-4--2-2---2-2--4--4-4-4----------
--2-2--0-0---2-2--2--2-2-2----------
-------------0-0--------------------

riff 5:

-------------------------------------------------------------
-------------------------------------------------------------
-6-6-6-6-6-6-6-6-6--2-2-2-2-2-2-2-2-2------------------------
-6-6-6-6-6-6-6-6-6--2-2-2-2-2-2-2-2-2--2-2-2-2-2-2-2-2-2-----
-4-4-4-4-4-4-4-4-4--0-0-0-0-0-0-0-0-0--2-2-2-2-2-2-2-2-2-----
---------------------------------------0-0-0-0-0-0-0-0-0-----

-----------------------
-----------------------
-4-4-4-4-4-4-4-4-4-----
-4-4-4-4-4-4-4-4-4-----
-2-2-2-2-2-2-2-2-2-----
-----------------------

riff 6:
-----------------------
-----------------------
-10-10-10-9-9-9--------
-x---x--x-x-x-x-4-4----
-8---8--8-7-7-7-2-2----
-----------------------


moka-chan
Calificar esta versión:
Aviso: Este fichero es trabajo propio de su transcriptor y representa su interpretación personal de la canción. El material contenido en esta página es para exclusivo uso privado, por lo que se prohibe su reproducción o retransmisión, así como su uso para fines comerciales.