Der Letzte Tag, Tokio Hotel (tablatura)

Autor: Xx_thevampiremurder_xX | 44927 visualizaciones

aki el link para ke oigan la cancion!
http://www.youtube.com/watch?v=y3LUsq4Avnw


intro:
e|------------------------------|
B|------------------------------|
G|------------------------------| x2
D|----3---3------444444---------|
A|---3---3--2-1--444444---------|
E|--1---1--------222222---------|

verso:

e|------------------------------|
B|------------------------------|
G|------------------------------| x4
D|----3---3------444444---------|
A|---3---3--2-1--444444---------|
E|--1---1--------222222---------|

pre-estribillo

e|---------------------------------|
B|---------------------------------|
G|---------------------------------|
D|--444--77-7-7----444--77-77------|
A|--444--77-7-7----444--77-77------|
E|--222--55-5-5----222--55-55------|

estribillo

e|-----------------------|    |--------------------|
B|-----------------------|    |--------------------|
G|------777--------------|    |-666-777------------|
D|--444-777-777-7-77-----| x2 |-666-777-777-7-77---|
A|--444-555-777-7-77-----|    |-444-555-777-7-77---|
E|--222-----555-4-44-----|    |---------555-4-44---|

e|---------------------------------|
B|---------------------------------|
G|---------------------------------|
D|--444444-777777--444444-77-77----|
A|--444444-777777--444444-77-77----|
E|--222222-555555--222222-55-55----|

de nuevo el verso:

verso:

e|------------------------------|
B|------------------------------|
G|------------------------------| x4
D|----3---3------444444---------|
A|---3---3--2-1--444444---------|
E|--1---1--------222222---------|

y el pre-estribillo:

e|---------------------------------|
B|---------------------------------|
G|---------------------------------|
D|--444--77-7-7----444--77-77------|
A|--444--77-7-7----444--77-77------|
E|--222--55-5-5----222--55-55------|

y el estribillo:

e|-----------------------|    |--------------------|
B|-----------------------|    |--------------------|
G|------777--------------|    |-666-777------------|
D|--444-777-777-7-77-----| x2 |-666-777-777-7-77---|
A|--444-555-777-7-77-----|    |-444-555-777-7-77---|
E|--222-----555-4-44-----|    |---------555-4-44---|

e|---------------------------------|
B|---------------------------------|
G|---------------------------------|
D|--444444-777777--444444-77-77----|
A|--444444-777777--444444-77-77----|
E|--222222-555555--222222-55-55----|

puente:

e|---------------|     |--------------------------------------|
B|---------------|     |--------------------------------------|
G|----7----------| x4  |-666-77-9999999---666-777-666-4-44----|
D|-4--7--7--7----|     |-666-77-9999999---666-777-666-4-44----|
A|-4--5--7--7----|     |-444-55-7777777---444-555-444-2-22----|
E|-2-----5--4----|     |--------------------------------------|

estribillo (esta vez se repite en estribillo entero dos veces)

e|-----------------------|    |--------------------|
B|-----------------------|    |--------------------|
G|------777--------------|    |-666-777------------|
D|--444-777-777-7-77-----| x2 |-666-777-777-7-77---|
A|--444-555-777-7-77-----|    |-444-555-777-7-77---|
E|--222-----555-4-44-----|    |---------555-4-44---|

e|---------------------------------|
B|---------------------------------|
G|---------------------------------|
D|--444444-777777--444444-77-77----| 
A|--444444-777777--444444-77-77----|
E|--222222-555555--222222-55-55----|

despeus del estribillo:

B|-----------------------------------------------------|
G|-666-77-9999999---666-777-666-4-44---666-77-9999999--|
D|-666-77-9999999---666-777-666-4-44---666-77-9999999--|
A|-444-55-7777777---444-555-444-2-22---444-55-7777777--|
E|-----------------------------------------------------|

e|---------------------------------|
B|---------------------------------|
G|---------------------------------|
D|--444444-777777--444444-77-77----|
A|--444444-777777--444444-77-77----|
E|--222222-555555--222222-55-55----|

FIN

resulta facil de tocar, solo ahy ke aprenderse de memoria las posiciones en el mastil porque todos los riffs 
son con power chords. mucha suerte!

moka-san
Calificar esta versión:
Aviso: Este fichero es trabajo propio de su transcriptor y representa su interpretación personal de la canción. El material contenido en esta página es para exclusivo uso privado, por lo que se prohibe su reproducción o retransmisión, así como su uso para fines comerciales.