Dark Side Of The Sun, Tokio Hotel (tablatura)

Autor: morrizon | 22997 visualizaciones

Esto son los acordes originales de la cancion

(intro)

E|---------------------------------|
B|---------------------------------|
G|---------------------------------|
D|-3h4-4-4-4-----------------------|
A|-----------4h6-6-6-6-------------|
E|---------------------4h6-6-6-6-6-|

E|--------------------------------------------|
B|--------------------------------------------|
G|-10-11-11-11-11-6/8-8-8-8-------------------| 
D|-10/11-11-11-11-6/8-8-8-8-6/8-8-8-8-8-8-8-8-| 
A|-8-/9--9--9--9--4/6-6-6-6-6/8-8-8-8-8-8-8-8-|
E|--------------------------4/6-6-6-6-6-6-6-6-|

(ponte)
E|-----------------------------------------------------------------|
B|-----------------------------------------------------------------|
G|--------------------8~----------8~----------8~----------8~-------|
D|-4~-6~-8~-10/8/6/4~-8~-8~-6~-4~-8~-8~-6~-4~-8~-8~-6~-4~-8~-8~-6~-|
A|-4~-6~-8~-10/8/6/4~-6~-8~-6~-4~-6~-8~-6~-4~-6~-8~-6~-4~-6~-8~-6~-|
E|-2~-4~-6~-8-/6/4/2~----6~-4~-2~----6~-4~-2~----6~-4~-2~----6~-4~-|

Comentarios del colaborador: http://cifraclub.terra.com/tokio-hotel/dark-side-of-the-sun/

Calificar esta versión:
Aviso: Este fichero es trabajo propio de su transcriptor y representa su interpretación personal de la canción. El material contenido en esta página es para exclusivo uso privado, por lo que se prohibe su reproducción o retransmisión, así como su uso para fines comerciales.