Break Away, Tokio Hotel (tablatura)

Autor: luizhotel | 23740 visualizaciones

Break Away  -  Tokio Hotel


[Riff principal]


E||--------------------------------|
B||--------------------------------|
G||--------------------------------|
D||--------------------------------|
A||--3-0-0-3-0-0-3-0-0-3-0-0-------|
E||--------------------------2--2--| x9

[Verso]

|-----------------------|
|-----------------------|
|---------2-------------|
|-----2------2----------|
|--0------------0-------|
|------------------22222| x4 

[Riff principal]

|--------------------------------|
|--------------------------------|
|--------------------------------|
|--------------------------------|
|--3-0-0-3-0-0-3-0-0-3-0-0-------|
|--------------------------2--2--| x2

[Verso]


|-----------------------|
|-----------------------|
|---------2-------------|
|-----2------2----------|
|--0------------0-------|
|------------------22222| x4 

[Riff principal]

|--------------------------------|
|--------------------------------|
|--------------------------------|
|--------------------------------|
|--3-0-0-3-0-0-3-0-0-3-0-0-------|
|--------------------------2--2--| x2


[Coro]


-----------------------|-----------------------|
-----------------------|-----------------------|
-----------------------|--7---7---7---7---7----|
--3---3---3---3---3----|--7---7---7---7---7----|
--3---3---3---3---3----|--5---5---5---5---5----|
--1---1---1---1---1----|-----------------------|



-----------------------|-----------------------|
-----------------------|-----------------------|
--5---5---5---5---5----|--7---7---7---7---7----|
--5---5---5---5---5----|--7---7---7---7---7----|
--3---3---3---3---3----|--5---5---5---5---5----|
-----------------------|-----------------------|



-----------------------|-----------------------|
-----------------------|-----------------------|
-----------------------|-11-11-12-12-14-14-----|
--3---3---3---3---3----|-X--X--X--X--X--X------|
--3---3---3---3---3----|-13-13-14-14-16-16-----|
--1---1---1---1---1----|-----------------------|

[Riff principal]

|--------------------------------|
|--------------------------------|
|--------------------------------|
|--------------------------------|
|--3-0-0-3-0-0-3-0-0-3-0-0-------|
|--------------------------2--2--| x5

[Verso]


|-----------------------|
|-----------------------|
|---------2-------------|
|-----2------2----------|
|--0------------0-------|
|------------------22222| x4 

[Riff principal]

|--------------------------------|
|--------------------------------|
|--------------------------------|
|--------------------------------|
|--3-0-0-3-0-0-3-0-0-3-0-0-------|
|--------------------------2--2--| x2

[Verso]


|-----------------------|
|-----------------------|
|---------2-------------|
|-----2------2----------|
|--0------------0-------|
|------------------22222| x4 

[Riff principal]

|--------------------------------|
|--------------------------------|
|--------------------------------|
|--------------------------------|
|--3-0-0-3-0-0-3-0-0-3-0-0-------|
|--------------------------2--2--| x2


[Coro]


-----------------------|-----------------------|
-----------------------|-----------------------|
-----------------------|--7---7---7---7---7----|
--3---3---3---3---3----|--7---7---7---7---7----|
--3---3---3---3---3----|--5---5---5---5---5----|
--1---1---1---1---1----|-----------------------|



-----------------------|-----------------------|
-----------------------|-----------------------|
--5---5---5---5---5----|--7---7---7---7---7----|
--5---5---5---5---5----|--7---7---7---7---7----|
--3---3---3---3---3----|--5---5---5---5---5----|
-----------------------|-----------------------|



-----------------------|-----------------------|
-----------------------|-----------------------|
-----------------------|-11-11-12-12-14-14-----|
--3---3---3---3---3----|-X--X--X--X--X--X------|
--3---3---3---3---3----|-13-13-14-14-16-16-----|
--1---1---1---1---1----|-----------------------|

[Riff principal]

|--------------------------------|
|--------------------------------|
|--------------------------------|
|--------------------------------|
|--3-0-0-3-0-0-3-0-0-3-0-0-------|
|--------------------------2--2--| x4


[Puente]


-----------------------|-----------------------|
-----------------------|-----------------------|
--5---5---5---5---5----|--7---7---7---7---7----|
--5---5---5---5---5----|--7---7---7---7---7----|
--3---3---3---3---3----|--5---5---5---5---5----|
-----------------------|-----------------------|



-----------------------|-----------------------|
-----------------------|-----------------------|
--5---5---5---5---5----|--7---7---7---7---7----|
--5---5---5---5---5----|--7---7---7---7---7----|
--3---3---3---3---3----|--5---5---5---5---5----|
-----------------------|-----------------------|



-----------------------|-----------------------|
-----------------------|-----------------------|
--10-9--10-99--555-----|-10-99--5xx------------|
--X--X--X--XX--XXX-----|-X--XX--Xxx------------|
--8--7--8--77--333-----|-8--77--3xx------------|
-----------------------|-----------------------|

-----------------------|-----------------------|
-----------------------|-----------------------|
--10-9--10-99--555-----|-10-99--5xx------------|
--X--X--X--XX--XXX-----|-X--XX--Xxx------------|
--8--7--8--77--333-----|-8--77--3xx------------|
-----------------------|-----------------------|




---------------|---------------|---------------|---------------|
---------------|---------------|---------------|---------------|
---------------|--7------------|--5------------|--7------------|
--3------------|--7------------|--5------------|--7------------|
--3------------|--5------------|--3------------|--5------------|
--1------------|---------------|---------------|---------------|


[Coro]


-----------------------|-----------------------|
-----------------------|-----------------------|
-----------------------|--7---7---7---7---7----|
--3---3---3---3---3----|--7---7---7---7---7----|
--3---3---3---3---3----|--5---5---5---5---5----|
--1---1---1---1---1----|-----------------------|



-----------------------|-----------------------|
-----------------------|-----------------------|
--5---5---5---5---5----|--7---7---7---7---7----|
--5---5---5---5---5----|--7---7---7---7---7----|
--3---3---3---3---3----|--5---5---5---5---5----|
-----------------------|-----------------------|



-----------------------|-----------------------|
-----------------------|-----------------------|
-----------------------|-11-11-12-12-14-14-----|
--3---3---3---3---3----|-X--X--X--X--X--X------|
--3---3---3---3---3----|-13-13-14-14-16-16-----|
--1---1---1---1---1----|-----------------------|


[Riff principal]
|--------------------------------|
|--------------------------------|
|--------------------------------|
|--------------------------------|
|--3-0-0-3-0-0-3-0-0-3-0-0-------|
|--------------------------2--2--| x4


[Coro] 


-----------------------|-----------------------|
-----------------------|-----------------------|
-----------------------|--7X--7X--7X--7X--7X---|
--3X--3X--3X--3X--3X---|--7X--7X--7X--7X--7X---|
--3X--3X--3X--3X--3X---|--5X--5X--5X--5X--5X---|
--1X--1X--1X--1X--1X---|-----------------------|



-----------------------|-----------------------|
-----------------------|-----------------------|
--5X--5X--5X--5X--5X---|--7X--7X--7X--7X--7X---|
--5X--5X--5X--5X--5X---|--7X--7X--7X--7X--7X---|
--3X--3X--3X--3X--3X---|--5X--5X--5X--5X--5X---|
-----------------------|-----------------------|



-----------------------|-----------------------|
-----------------------|-----------------------|
-----------------------|-11-11-12-12-14-14-----|
--3X--3X--3X--3X--3X---|-X--X--X--X--X--X------|
--3X--3X--3X--3X--3X---|-13-13-14-14-16-16-----|
--1X--1X--1X--1X--1X---|-----------------------|


[Riff principal]

|--------------------------------|
|--------------------------------|
|--------------------------------|
|--------------------------------|
|--3-0-0-3-0-0-3-0-0-3-0-0-------|
|--------------------------2--2--| x8...


Calificar esta versión:
Aviso: Este fichero es trabajo propio de su transcriptor y representa su interpretación personal de la canción. El material contenido en esta página es para exclusivo uso privado, por lo que se prohibe su reproducción o retransmisión, así como su uso para fines comerciales.