Lo Siento (acustico), Toke Rosa (tablatura)

Autor: david_pxndx | 46325 visualizaciones



LO SIENTO (ACUSTICO)
intro
e|--0---0---0---0---0---0---0---0----|
B|----0---0---0---0---0---0---0---0--|
G|-----------------------------------|
D|-----------------------------------|
A|-----------------------------------|
E|-----------------------------------|


           se que el tiempo nunca corre a nuestro favor..............
e|---------------------------------------------|-----------------------------------|
B|--------------0---------0-------0--------0---|------0--------0--------0------0---|
G|-1h2-1----------1---------1-------1--------1-|--------2--------2--------2------2-|
D|-------2----2---------2--------2--------2----|----2--------2--------2-------2----|x2
A|---------------------------------------------|--0--------0--------0-------0------|
E|----------0--------0--------0--------0-------|-----------------------------------|


i no entiendo en que momento se me fue......... (sohloh dejen sonar cada acorde)
e|--0--0----0----0---|
B|--0----0--0--0---0-|
G|--1-------1--------|
D|--2-------2--------|x2 NOTA: haien los momentos en q se toca
A|--2-------2--------|
E|--0-------0--------|
    E       E

coro
amor ia no quiero estar cerca de ti........
e|--000-------000----0---0--|-000-------000------|
B|--000-------222----0---0--|-000-------222------|
G|--111--444--222—----------|-111--444--222--444-|
D|--222--444--222—-4---4----|-222--444--222--444-|X2
A|--222--222--000—-2---2----|-222--222--000--222-|
E|--000---------------------|-000----------------|
     E    B    A    B          E    B    A    B


ahora viene un intermedio q ieva flauta! lo sake x si lo kieren tocar
e|--12--11--12--------------------------|--12-11-12-------------------------------|
B|-------------12--10-12----------------|-----------12-12--10-12------------------|
G|-----------------------14-12-12-14----|--------------------------14-12-12-14----|
D|-----------------------------------14-|--------------------------------------14-|
A|--------------------------------------|-----------------------------------------|
E|--------------------------------------|-----------------------------------------|


i la guitarra toca esto:
e|--0---0---0---0---0---0---0---0----|
B|----0---0---0---0---0---0---0---0--|
G|-----------------------------------|
D|-----------------------------------|
A|-----------------------------------|
E|-----------------------------------|


i la flauta sigue haciendo esto: (no estoi mui seguro q vaias así! pro iwal se los pongo)
ya no me muero por ti............
e|--------------------------------------------------|
B|--------------------------------------------------|
G|-14v-14-14—12--12-14-12----17-15-14-12-10-10--12--|
D|------------------------14------------------------|
A|--------------------------------------------------|
E|--------------------------------------------------|

i la guitarra continua haciendo esto:
ya no me muero por ti............              i termina en: E
e|-----0---0-------0---0----00--0---0----00-0---0--|--0--|
B|-------0---0-------0---0--22----0---0--22---0---0|--0--|
G|--66----------44----------22-----------22--------|--1--|
D|--66----------44----------22-----------22--------|--2--|
A|--44----------22----------00-----------00--------|--2--|
E|-------------------------------------------------|--0--|
     C#           B     A   

coro
amor ia no quiero estar cerca de ti........
e|-0000-------|
B|-2222-------|
G|-2222--4444-|
D|-2222--4444-|
A|-0000--2222-|
E|------------|
    A      B

quiero mirarte a los ojos i sentir q muero...........
e|--000-------000--------|-000-------000------|
B|--000-------222--------|-000-------222------|
G|--111--444--222—-4444--|-111--444--222--444-|
D|--222--444--222—-4444--|-222--444--222--444-|X2
A|--222--222--000—-2222--|-222--222--000--222-|
E|--000------------------|-000----------------|
     E    B    A    B    -  E    B    A    B


i termninan en E i haciendo esto:
e|--0---0---0---0---0---0---0---0----|
B|----0---0---0---0---0---0---0---0--|
G|-----------------------------------|
D|-----------------------------------|
A|-----------------------------------|
E|-----------------------------------|


i la flauta hace esto:
e|--12--11--12-----------------------------------|
B|-------------12--10-12-------------------------|
G|-----------------------14-12-14----12-14-12----|
D|--------------------------------14----------14-|
A|-----------------------------------------------|
E|-----------------------------------------------|



i termina en E


weno eso es todo! ojala les sirva! ia saben reclamos, sugerencias, fans d Toke rosa etc les dejo mi correo tankian_28@hotmail.com





Calificar esta versión:
Aviso: Este fichero es trabajo propio de su transcriptor y representa su interpretación personal de la canción. El material contenido en esta página es para exclusivo uso privado, por lo que se prohibe su reproducción o retransmisión, así como su uso para fines comerciales.