Yo Soy El Rock, Toby Trueno (acordes)

Autor: RODRIGO125 | 43492 visualizaciones

abmdg
INTRO: D[4veces] - G[2veces] - A[2veces]

D        G       A 
 Enchufo mi guitarra
D                       G      A 
 subo el volumen del amplificador
D                           G        A           D
 siento en el aire como empieza a subir la tensión

2° guitarra
D         G       A 
-----------------------------
--3-0------------------------
------2-0-0---2-0------------
-------------------4-2-0-----
-----------------------------
-----------------------------


D         G       A 
-----------------------------
--3-0------------------------
------2-0-0-----2------------
-----------------------------
-----------------------------
-----------------------------

D        G       A 
 estamos conectados,
D                   G        A 
 por el sonido del rock and roll
D                 G    A       D
 no hay nada como esta sensacion

2° guitarra

D         G       A 
-----------------------------
--3-0------------------------
------2-0-0---2-0------------
-------------------4-2-0-----
-----------------------------
-----------------------------


D         G       A 
-----------------------------
--3-0------------------------
------2-0-0-----2------------
-----------------------------
-----------------------------
-----------------------------


G          A 
 cuando no se quien soy
D      Bm         G         A 
 o necesito identificacion,

CORO:
           D     G
yo soy el rock,
A           D     G
 yo soy el rock,
A               D
 no es solo una musica
              G             A 
 es un sentimiento del corazon
            D
 yo soy el rock

 D[4veces] - G[2veces] - A[2veces]---------> 2 VECES

D                   G      A 
 cuando sientas un estruendo
D              G       A 
 que viene de tu interior
D                     G      A         D
 es el trueno de esta tempestad del rock

2° guitarra

D         G       A 
-----------------------------
--3-0------------------------
------2-0-0---2-0------------
-------------------4-2-0-----
-----------------------------
-----------------------------


D         G       A 
-----------------------------
--3-0------------------------
------2-0-0-----2------------
-----------------------------
-----------------------------
-----------------------------


G          A 
 cuando no se quien soy
D      Bm         G         A 
 o necesito identificacion,

CORO:SE REPITE 2 VECES
           D     G
yo soy el rock,
A           D     G
 yo soy el rock,
A               D
 no es solo una musica
              G             A 
 es un sentimiento del corazon
            D
 yo soy el rock

D[3 VECES]

Comentarios del colaborador: ROCIO T.K.M. ATTE: RODRIGO

Calificar esta versión:
Aviso: Este fichero es trabajo propio de su transcriptor y representa su interpretación personal de la canción. El material contenido en esta página es para exclusivo uso privado, por lo que se prohibe su reproducción o retransmisión, así como su uso para fines comerciales.