Princesa Tibetana, Timbiriche (acordes)

Autor: rayado | 35251 visualizaciones

cfg
INTRO

G*
e|------10------10------10---------
B|---8-------8-------8-------8-----
G|-7---7---7---7---7---7---7---7---
D|---------------------------------
A|---------------------------------
E|---------------------------------

F*
e|------8------8------8------------
B|---6-------6-------6-------6-----
G|-5---5---5---5---5---5---5---5---
D|---------------------------------
A|---------------------------------
E|---------------------------------

C*
e|------8------8------8------------
B|---8-------8-------8-------8-----
G|-9---9---9---9---9---9---9---9---
D|---------------------------------
A|---------------------------------
E|---------------------------------

Despues de terminar con esta secuencia, lo pueden repetir las veces
que quieran.

De esta manera, quedaria asi:

INTRO:
G* G* G* G* F* C* G*

G
PRINCESA TIBETANA, TE VISUALICÉ EN UN CRISTAL
            F          C              G
Y AHORA TE TENGO AQUÍ, EN MI HABITACIÓN

G
Y SI CAMINAS POR INFIERNOS, Y SICAMINAS CON DIOS
          F       C          G
SERÉ TU PROTECTOR Y TE CUIDARÉ

G                                    F      C
SOLO TE PIDO, DAME MAS, DAME MAS DE TI, UH DE TU AMOR
G
SOLO TE PIDO

G                                    F      C
SOLO TE PIDO, DAME MAS, DAME MAS DE TI, UH DE TU AMOR
G
SOLO TE PIDO, SOLO TE PIDO

G
PINTORA DE ILUSIONES DONDE HAS PINTADO TU FLOR,
       F          C          G
SOBRE MI CORAZÓN, SOBRE MI SER

G
Y SI CAMINAS POR ESPINAS
                                  F        C          G
Y SI CAMINAS POR EL SOL, SERÉ TU COPERTON, Y TE CUIDARE

G                                    F      C
SOLO TE PIDO, DAME MAS, DAME MAS DE TI, UH DE TU AMOR
G
SOLO TE PIDO

G                                    F      C
SOLO TE PIDO, DAME MAS, DAME MAS DE TI, UH DE TU AMOR
G
SOLO TE PIDO, SOLO TE PIDO
Calificar esta versión:
Aviso: Este fichero es trabajo propio de su transcriptor y representa su interpretación personal de la canción. El material contenido en esta página es para exclusivo uso privado, por lo que se prohibe su reproducción o retransmisión, así como su uso para fines comerciales.