Wake Up, Three Days Grace (tablatura)

Autor: ANTICRIS 2.0 | 35531 visualizaciones

THREE DAYS GRACE
wake up

ESTA CANCION ESTA TRANSPORTADA UN TONO ARRIBA RESPECTO A LA AFINACION D-A-D-G-B-E 

[Intro - Riff 1]

       |   |   |   |     |   |   |  |    |   |   |   |     |   |   |  |

F#|---|-----------------|---------------|-----------------|----------------|
C#|---|-----------------|---------------|-----------------|----------------|
A|---|-----------------|---------------|-----------------|----------------|
E|---|-----4---5-4---4-|-----4-5--4----|-----7---5h7---7-|---7---5--4-----|
B|---|---2---2---------|---0-----------|---5-------------|----------------|
E|-0-|-2-----------2---|-0-----------0-|-5-----5-----5---|-0---0-------0--|

[Estrofa 1] {Guitar continua con el Riff 1}
Durante 00:37 segundos para pasar al puente o pre coro


[Pre-Coro]

F#|---------|---------|---------|---------------|
C#|-5-5-5-5-|-7-7-7-7-|-8-8-8-8-|--10-10-10-10--|
A |-2-2-2-2-|-4-4-4-4-|-5-5-5-5-|---7--7--7--7--|
E |-2-2-2-2-|-4-4-4-4-|-5-5-5-5-|---7--7--7--7--|
B |---------|---------|---------|---------------|
E |---------|---------|---------|---------------|

F#|---------|---------|---------|----------------|---------------|
C#|-5-5-5-5-|-7-7-7-7-|-8-8-8-8-|-7-7-7-8---10---|-7-7-7-8---7---|
A |-2-2-2-2-|-4-4-4-4-|-5-5-5-5-|-7-7-7-7----7---|-7-7-7-7---7---|
E |-2-2-2-2-|-4-4-4-4-|-5-5-5-5-|-7-7-7-7----7---|-7-7-7-7---7---|
B |---------|---------|---------|----------------|---------------|
E |---------|---------|---------|----------------|---------------|


[Coro]...

F#|--------------|--------------|--------------|--------------|
C#|--------------|--------------|--------------|--------------|
A |--------------|--------------|--------------|--------------|
E |-0-2-2-0-2----|-2-0--0--0--0-|-5-5-5-5-5----|-5-0--0--0--0-|
B |-0-2-2-0-2----|-2-0--0--0--0-|-5-5-5-5-5----|-5-0--0--0--0-|
E |-0-2-2-0-2----|-2-0--0--0--0-|-5-5-5-5-5----|-5-0--0--0--0-|

F#|--------------|----------------|---------------|----------------|
C#|--------------|----------------|---------------|----------------|
A|--------------|-4-4-4-4-4-4-5--|-(5)-5-5--5----|-7-7--7--7------|
E|-0-2-2-0-2----|-4-4-4-4-4-4-5--|-(5)-5-5--5----|-7-7--7--7--(0)-|
B|-0-2-2-0-2----|-2-2-2-2-2-2-3--|-(3)-3-3--3----|-5-5--5--5--(0)-|
E|-0-2-2-0-2----|----------------|---------------|------------(0)-|

Wake up, I'm pounding on the door...







[LA GUITARRA vuelve al Riff 1]

[Pre-chorus]

 [Puente - Riff 2] 

F#|---------|---------|---------|-------------|
C#|-5-5-5-5-|-7-7-7-7-|-8-8-8-8-|-10-10-10-10-|
A |-2-2-2-2-|-4-4-4-4-|-5-5-5-5-|--7--7--7--7-|
E |-2-2-2-2-|-4-4-4-4-|-5-5-5-5-|--7--7--7--7-|
B |---------|---------|---------|-------------|
E |---------|---------|---------|-------------|

F#|---------|---------|---------|----------------|
C#|-5-5-5-5-|-7-7-7-7-|-8-8-8-8-|-7-7-7-8---10---|
A |-2-2-2-2-|-4-4-4-4-|-5-5-5-5-|-7-7-7-7----7---|
E |-2-2-2-2-|-4-4-4-4-|-5-5-5-5-|-7-7-7-7----7---|
B |---------|---------|---------|----------------|
E |---------|---------|---------|----------------|

{Guitarra repite Riff 2}
It took so long to say...

F#||------------------||---------------|
C#||--7-7-7-8---10----||-7-7-7-8---7---|
A ||o-7-7-7-7----7---o||-7-7-7-7---7---|
E ||o-7-7-7-7----7---o||-7-7-7-7---7---|
B ||------------------||---------------|
E ||------------------||---------------|


F#|--------------|--------------|--------------|--------------|
C#|--------------|--------------|--------------|--------------|
A |--------------|--------------|--------------|--------------|
E |-0-2-2-0-2----|-2-0--0--0--0-|-5-5-5-5-5----|-5-0--0--0--0-|
B |-0-2-2-0-2----|-2-0--0--0--0-|-5-5-5-5-5----|-5-0--0--0--0-|
E |-0-2-2-0-2----|-2-0--0--0--0-|-5-5-5-5-5----|-5-0--0--0--0-|

[Coro]

F#|--------------|--------------|--------------|--------------|
C#|--------------|--------------|--------------|--------------|
A |--------------|--------------|--------------|--------------|
E |-0-2-2-0-2----|-2-0--0--0--0-|-5-5-5-5-5----|-5-0--0--0--0-|
B |-0-2-2-0-2----|-2-0--0--0--0-|-5-5-5-5-5----|-5-0--0--0--0-|
E |-0-2-2-0-2----|-2-0--0--0--0-|-5-5-5-5-5----|-5-0--0--0--0-|

F#|--------------|----------------|---------------|----------------|
C#|--------------|----------------|---------------|----------------|
A|--------------|-4-4-4-4-4-4-5--|-(5)-5-5--5----|-7-7--7--7------|
E|-0-2-2-0-2----|-4-4-4-4-4-4-5--|-(5)-5-5--5----|-7-7--7--7--(0)-|
B|-0-2-2-0-2----|-2-2-2-2-2-2-3--|-(3)-3-3--3----|-5-5--5--5--(0)-|
E|-0-2-2-0-2----|----------------|---------------|------------(0)-|

			
Calificar esta versión:
Aviso: Este fichero es trabajo propio de su transcriptor y representa su interpretación personal de la canción. El material contenido en esta página es para exclusivo uso privado, por lo que se prohibe su reproducción o retransmisión, así como su uso para fines comerciales.