I Hate Everything About You, Three Days Grace (tablatura)

Autor: alvaretto | 21928 visualizaciones

Intérprete: Three Days Grace
Álbum: Three Days Grace
Canción: I Hate Everything About You

Guitarrista: Barry Stock 
Afinación: eBGdAD

Generalmente en las canciones de
esta banda la afinación es eBGdAD
de tal modo que la cuerda 6 y la 4
son octavas si se pisan en el mismo
traste.

INTRO/VERSO
|-------------------------------|
|-------------------------------|
|---4-6-----4-6-----4-6-----4-6-|
|---4-6-----4-6-----4-6-----4-6-|
|-----------------0-------------|
|-0-----0-4-----0-------0-4-----|

PRE-CORO
|---------------------|
|---------------------|
|---------------------|
|-2~~~~~~~~~0~~~~7~~~~|
|-2~~~~~~~~~0~~~~7~~~~|
|-2~~~~~~~~~0~~~~7~~~~|

CORO
|-----------------------------------------|
|-----------------------------------------|
|------2-2-------4-4-------2-2------------|
|-4-4--2-2--2-2--4-4--4-4--2-2--2--7---6--|
|-4-4--0-0--2-2--2-2--4-4--0-0--2--7---6--|
|-4-4-------2-2-------4-4-------2--7---6--|

Antes del segundo verso (mientras se toca
el intro) se escucha un pequeño punteo, no se si
uds lo conozcan, entre 1:30 y 1:32 (no en la versión
radio), lo saque por si es necesario:

|--------------|
|--------------|
|-7-8-7-10-8-7-|
|--------------|
|--------------|
|--------------|

ESTRIBILLO
|-------------------------------------|
|-------------------------------------|
|-7-7-7-8-8-8-10-10-7-7-7-8-8-8-10-10-|
|-------------------------------------|
|-------------------------------------|
|-------------------------------------|

|-----------------------------|
|-----------------------------|
|-7-7-7-8-8-8-10-10-7-7-7-8/3-|
|-----------------------------|
|-----------------------------|
|-----------------------------|

ORDEN:
intro
verso
pre-coro
coro
intro
verso
pre-coro
coro
estribillo
intro
coro 

LYRICS
Everytime we lie awake
after every hit we take
every feeling that I get
but I haven't missed you yet
every room-mate kept awake
by every silent sream we make
all the feelings that I get
but I still don't miss you yet
Only when I stop to think about it...

I... hate...
everything about you
why... do I love you?
I... hate...
everything about you
why... do I love you?

Everytime we lie awake
after every hit we take
every feeling that I get
but I haven't missed you yet
Only when I stop to think about it...

I... hate...
everything about you
why... do I love you?
I... hate...
everything about you
why... do I love you?

Only when I stop to think about you... I know
only when you stop to think about me... do you know?

I... hate...
everything about you
why... do I love you?
you... hate...
everything about me
why do you love me?
I... hate...
you... hate
I... hate...
you... love me
I... hate...
everything about you
why... do I love you?
Calificar esta versión:
Aviso: Este fichero es trabajo propio de su transcriptor y representa su interpretación personal de la canción. El material contenido en esta página es para exclusivo uso privado, por lo que se prohibe su reproducción o retransmisión, así como su uso para fines comerciales.