Gone Forever (intro), Three Days Grace (tablatura)

Autor: brando israel | 36909 visualizaciones

Intro 
E|----------------------------------------------|(x1)
B|----------------------------------------------|
G|11-11-11-11-11-11-11-11-11-11-11-11-11-11-11--|
D|-9--9--9--9--9--9--9--9--9--9--9--9--9--9--9--|
A|-9--9--9--9--9--9--9--9--9--9--9--9--9--9--9--|
D|-9--9--9--9--9--9--9--9--9--9--9--9--9--9--9--|

Verse "Don't know whats going on, don't know what went wrong"
E|--------------------------------------------------------|(x2)
B|--------------------------------------------------------|
G|11-11-11-11-11-11-11-11------9--9--9--9--9--9-----------|
D|-9--9--9--9--9--9--9--9------7--7--7--7--7--7-------0~--|
A|-9--9--9--9--9--9--9--9------7--7--7--7--7--7-------0~--|
D|-9--9--9--9--9--9--9--9------7--7--7--7--7--7-------0~--|

"Feels like a hundred years I, still can't believe you're gone"                          
E|-------------------------------------------|-----------|
B|-------------------------------------------|-----------|
G|-7-7-7-7-7-7-7-7-----2-2-2-2-2-2-----6-----|--9-9-9-9--|
D|-5-5-5-5-5-5-5-5-----0-0-0-0-0-0-----4-----|--7-7-7-7--| <---Play this 2nd time
A|-5-5-5-5-5-5-5-5-----0-0-0-0-0-0-----4-----|--7-7-7-7--|
D|-5-5-5-5-5-5-5-5-----0-0-0-0-0-0-----4-----|--7-7-7-7--|

Pre-chorus (x1)
E|---------------------0----|
B|---------------------7----|
G|-4-4-4-4---6-6-6-6---7----|
D|-2-2-2-2---4-4-4-4---5----|
A|-2-2-2-2---4-4-4-4---5----|
D|-2-2-2-2---4-4-4-4---5----|

Chorus "I feel so much better, now that you're gone forever"
E|--------------------------------------------------------|(x2)
B|--------------------------------------------------------|
G|--------------------------------------------------------|
D|-4-4---5-5---0-0-0-0---7-7-7-7---4-4---5-5---0-0-0---7--|
A|-4-4---5-5---0-0-0-0---7-7-7-7---4-4---5-5---0-0-0---7--|
D|-4-4---5-5---0-0-0-0---7-7-7-7---4-4---5-5---0-0-0---7--|

"I'm not lying, denying that I feel so much better now"          Play before 2nd verse   
E|------------------------------------------------------------------|(x1)|------|(x6)
B|------------------------------------------------------------------|    |------|
G|-----------------------------------------7-7-7-7-7-7-7---6-7-9-11-|    |-11b--|
D|-9-9-9-9---5-5-5-5---0-0-0-0---7-7-7-7---5-5-5-5-5-5-5---4-5-7--9-|    |--9---|
A|-9-9-9-9---5-5-5-5---0-0-0-0---7-7-7-7---5-5-5-5-5-5-5---4-5-7--9-|    |--9---|
D|-9-9-9-9---5-5-5-5---0-0-0-0---7-7-7-7---5-5-5-5-5-5-5---4-5-7--9-|    |--9---|

Bridge "First time you screamed at me, I should have made you leave"
E|----------------------------------------------|(x1)
B|----------------------------------------------|
G|----------4-4-4-4-4-4-4-4-1111111111111111----|
D|----------2-2-2-2-2-2-2-2--9-9-9-9-9-9-9-9----|
A|-5-4-2-0--2-2-2-2-2-2-2-2--9-9-9-9-9-9-9-9----|
D|----------2-2-2-2-2-2-2-2--9-9-9-9-9-9-9-9----|

E|-------------------------------------|
B|-------------------------------------|
G|----------4-4-4-4-4-4-4-4-1111--9-9--|
D|----------2-2-2-2-2-2-2-2--9-9--7-7--|
A|-5-4-2-0--2-2-2-2-2-2-2-2--9-9--7-7--|
D|----------2-2-2-2-2-2-2-2--9-9--7-7--|

E|--------------------------------------------------------------------|
B|--------------------------------------------------------------------|
G|----------4-4-4-4-4-4-4-4-1111111111111111--7-7-7-7-7-7-7--6-7-9-11-|
D|----------2-2-2-2-2-2-2-2--9-9-9-9-9-9-9-9--5-5-5-5-5-5-5--4-5-7--9-|
A|-5-4-2-0--2-2-2-2-2-2-2-2--9-9-9-9-9-9-9-9--5-5-5-5-5-5-5--4-5-7--9-|
D|----------2-2-2-2-2-2-2-2--9-9-9-9-9-9-9-9--5-5-5-5-5-5-5--4-5-7--9-|

Outro
E|--------------------------------------------------------------------0-|(x1)
B|-------0--------0------------------------0--------------0-----------0-|
G|-----7--------7--------7---------2-----7--------------7------------11-|
D|------------0------------4---2-4-----0-----4-5----------------------9-|
A|---9-----------------0-----0------------------------4--------5---7--9-|
D|-9--------5--------0---------------5-----------5--4--------5---7----9-|

Comentarios del colaborador: http://www.ultimate-guitar.com/tabs/t/three_days_grace/gone_forever_ver2_tab.htm

Calificar esta versión:
Aviso: Este fichero es trabajo propio de su transcriptor y representa su interpretación personal de la canción. El material contenido en esta página es para exclusivo uso privado, por lo que se prohibe su reproducción o retransmisión, así como su uso para fines comerciales.