A Little Faster, There For Tomorrow (tablatura)

Autor: Sasuke-Ed | 28476 visualizaciones



A Little Faster - There For Tomorrow

Guitar 1 - Christian
Guitar 2 - Maika

Guitar 1
eb|--9------9-12----------|
Bb|-------10------12-10---|
Gb|----11-----------------|
Db|-----------------------| X3
Ab|-----------------------|
Db|-----------------------|

eb|--9------9-----------|
Bb|-------10------------|
Gb|----11---------------|
Db|---------------------|
Ab|---------------------|
Db|---------------------|

Guitar 1 + 2
eb|-------------------------------------------|
Bb|-------------------------------------------|
Gb|-------------------------------------------|
Db|--444-xxxx-777-000-999-xxxx-00000000-------|
Ab|--444-xxxx-777-000-999-xxxx-00000000-------|
Db|--444-xxxx-777-000-999-xxxx-00000000-------|

Guitar 1
eb|--9------9-12----------|
Bb|-------10------12-10---|
Gb|----11-----------------|
Db|-----------------------| X3
Ab|-----------------------|
Db|-----------------------|

eb|--9------9-12-----------|
Bb|-------10------12-10----|
Gb|----11--------------10--|
Db|------------------------|
Ab|------------------------|
Db|------------------------|

Guitar 2
eb|-------------------------------------------|
Bb|-------------------------------------------|
Gb|-------------------------------------------|
Db|--444-xxxx-777-000-999-xxxx-00000000-------|
Ab|--444-xxxx-777-000-999-xxxx-00000000-------|
Db|--444-xxxx-777-000-999-xxxx-00000000-------|

Verse 1

Guitar 1
eb|---------------<5>-----------------------------------------------------|
Bb|---------------<5>-----------------------------------------------------|
Gb|---------------<5>-----------------------------------------------------|
Db|---------------<5>--4444444444444444-77777777-000000000000000000000000-|
Ab|---------------<5>--4444444444444444-77777777-000000000000000000000000-|
Db|--------------------4444444444444444-77777777-000000000000000000000000-|
PM                ..........................................................
Guitar 2
eb|-----------------------------------------------------------------------|
Bb|-----------------------------------------------------------------------|
Gb|-----------------------------------------------------------------------|
Db|--4----7---0--------4444444444444444-77777777-000000000000000000000000-|
Ab|--4X16-7X8-0X24-----4444444444444444-77777777-000000000000000000000000-|
Db|--4----7---0--------4444444444444444-77777777-000000000000000000000000-|
PM ........................................................................

Guitars 1 + 2
eb|-----------------------------------------------|
Bb|-----------------------------------------------|
Gb|-----------------------------------------------|
Db|--2222222222222222-0000000000000000-22222222-2-|
Ab|--2222222222222222-0000000000000000-22222222-2-|
Db|--2222222222222222-0000000000000000-22222222-2-|
PM  ...........................................

Chorus

Guitars 1 + 2
eb|-------------------------------------------|
Bb|-------------------------------------------|
Gb|-------------------------------------------|X2
Db|--444-xxxx-777-000-999-xxxx-22222222-------|
Ab|--444-xxxx-777-000-999-xxxx-22222222-------|
Db|--444-xxxx-777-000-999-xxxx-22222222-------|

Guitar 1
eb|-----------------------------------|
Bb|-----------------------------------|
Gb|--111111-9-666666-7-111111-9-22222-|
Db|-----------------------------------|
Ab|--9-9-9--7-444444-7-9-9-9--7-44444-|
Db|-----------------------------------|

Guitar 2
eb|--------------------------------------|
Bb|--------------------------------------|
Gb|--------------------------------------|
Db|--44444444-77777777-9999999999999999--|
Ab|--44444444-77777777-9999999999999999--|
Db|--44444444-77777777-9999999999999999--|

Guitars 1 + 2
eb|--------------------------------------|
Bb|--------------------------------------|
Gb|--------------------------------------|
Db|--444-xxxx-777-000-999-xxxx-0-2-------|
Ab|--444-xxxx-777-000-999-xxxx-0-2-------|
Db|--444-xxxx-777-000-999-xxxx-0-2-------|


Guitar 1
eb|--9------9-12----------|
Bb|-------10------12-10---|
Gb|----11-----------------|
Db|-----------------------| X2
Ab|-----------------------|
Db|-----------------------|

Guitar 2
eb|------------------------|
Bb|------------------------|
Gb|------------------------|
Db|--4---------------------|
Ab|--4---------------------|
Db|--4---------------------|

Verse 2

Guitar 1
Listen to Cd to work out palm muting. 
eb|-------------------------------------------------------------|
Bb|-------------------------------------------------------------|
Gb|-----------------------------------1-1---1-1---------------1-|
Db|---7--6--4--7--6---000202000202-222222222222-000202000202--2-|
Ab|---7--6--4--7--6---000202000202-222222222222-000202000202--2-|
Db|---7--6--4--7--6---000202000202-222-2-222-2--000202000202----|

Guitar 2
eb|----------------------------------------------------------------------|
Bb|----------------------------------------------------------------------|
Gb|----------------------------------------------------------------------|
Db|-4-----------------4444444444444444-77777777-000000000000000000000000-|
Ab|-4-----------------4444444444444444-77777777-000000000000000000000000-|
Db|-4-----------------4444444444444444-77777777-000000000000000000000000-|
 PM                 .............................................................

eb|-----------------------------------------------|
Bb|-----------------------------------------------|
Gb|-----------------------------------------------|
Db|--2222222222222222-0000000000000000-22222222-2-|
Ab|--2222222222222222-0000000000000000-22222222-2-|
Db|--2222222222222222-0000000000000000-22222222-2-|
PM  ..........................................

Chorus

Guitars 1 + 2
eb|-------------------------------------------|
Bb|-------------------------------------------|
Gb|-------------------------------------------|X2
Db|--444-xxxx-777-000-999-xxxx-22222222-------|
Ab|--444-xxxx-777-000-999-xxxx-22222222-------|
Db|--444-xxxx-777-000-999-xxxx-22222222-------|

Guitar 1
eb|-----------------------------------|
Bb|-----------------------------------|
Gb|--111111-9-666666-7-111111-9-22222-|
Db|-----------------------------------|
Ab|--9-9-9--7-444444-7-9-9-9--7-44444-|
Db|-----------------------------------|

Guitar 2
eb|--------------------------------------|
Bb|--------------------------------------|
Gb|--------------------------------------|
Db|--44444444-77777777-9999999999999999--|
Ab|--44444444-77777777-9999999999999999--|
Db|--44444444-77777777-9999999999999999--|

Guitars 1 + 2
eb|--------------------------------------|
Bb|--------------------------------------|
Gb|--------------------------------------|
Db|--444-xxxx-777-000-999-xxxx-0-2-------|
Ab|--444-xxxx-777-000-999-xxxx-0-2-------|
Db|--444-xxxx-777-000-999-xxxx-0-2-------|

Guitar 1
eb|--121212-99-------------9--------9--------------------|
Bb|------------------------------------------------------|
Gb|------------11~-11-9-11--11-9-11--11-9-11/14-13-9-11~-|
Db|------------------------------------------------------|
Ab|------------------------------------------------------|
Db|------------------------------------------------------|

Guitar 2
eb|-----------------------------------------|
Bb|-----------------------------------------|
Gb|-----------------------------------------|
Db|--444-777-99999999999999999-22222222-4---|
Ab|--444-777-99999999999999999-22222222-4---|
Db|--444-777-99999999999999999-22222222-4---|

Guitar 1
eb|---------------------------------------|
Bb|--9------9----------------10-14-9-12---|
Gb|---9------9------9-6-------------------|X2
Db|---------------------------------------|
Ab|---------------------------------------|
Db|---------------------------------------|

Guitar 2
eb|----------------------------------------------------|
Bb|----------------------------------------------------|
Gb|--9999999999999999-11111111111111111111111111111111-|
Db|----------------------------------------------------|
Ab|--7777777777777777-9-9-9-9-9-9-9-9-9-9-9-9-9-9-9-9--|
Db|----------------------------------------------------|

eb|-----------------------------------------------------|
Bb|-----------------------------------------------------|
Gb|--7777777777777777-1414141414141414-1313131313131313-|
Db|-----------------------------------------------------|
Ab|--5555555555555555-1212121212121212-1111111111111111-|
Db|-----------------------------------------------------|

eb|----------------------------------------------------|
Bb|----------------------------------------------------|
Gb|--9999999999999999-11111111111111111111111111111111-|
Db|----------------------------------------------------|
Ab|--7777777777777777-9-9-9-9-9-9-9-9-9-9-9-9-9-9-9-9--|
Db|----------------------------------------------------|

Listen to CD to work out palm muting.
eb|----------------------------------------|
Bb|----------------------------------------|
Gb|--7777777777777777----------------------|
Db|-------------------77777777-444444-22---|
Ab|--5555555555555555-77777777-444444-22---|
Db|-------------------77777777-444444-22---|


Chorus

Guitar 1
eb|--9------9-12----------|
Bb|-------10------12-10---|
Gb|----11-----------------|
Db|-----------------------| X3
Ab|-----------------------|
Db|-----------------------|

eb|--9------9-12-----------|
Bb|-------10------12-10----|
Gb|----11--------------10--|
Db|------------------------|
Ab|------------------------|
Db|------------------------|

Guitar 2
eb|-----------------------------------------|
Bb|-----------------------------------------|
Gb|-----------------------------------------|
Db|--4-------------------------44444444-----|
Ab|--4-------------------------44444444-----|
Db|--4-------------------------44444444-----|

Guitars 1 + 2
eb|-------------------------------------------|
Bb|-------------------------------------------|
Gb|-------------------------------------------|
Db|--444-xxxx-777-000-999-xxxx-22222222-------|
Ab|--444-xxxx-777-000-999-xxxx-22222222-------|
Db|--444-xxxx-777-000-999-xxxx-22222222-------|

Guitar 1
eb|-----------------------------------|
Bb|-----------------------------------|
Gb|--111111-9-666666-7-111111-9-22222-|
Db|-----------------------------------|
Ab|--9-9-9--7-444444-7-9-9-9--7-44444-|
Db|-----------------------------------|

Guitar 2
eb|--------------------------------------|
Bb|--------------------------------------|
Gb|--------------------------------------|
Db|--44444444-77777777-9999999999999999--|
Ab|--44444444-77777777-9999999999999999--|
Db|--44444444-77777777-9999999999999999--|

Guitars 1 + 2
eb|--------------------------------------|
Bb|--------------------------------------|
Gb|--------------------------------------|
Db|--444-xxxx-777-000-999-xxxx-00000000--|
Ab|--444-xxxx-777-000-999-xxxx-00000000--|
Db|--444-xxxx-777-000-999-xxxx-00000000--|

Guitar 1
eb|---------9------------12--|
Bb|--9h10p9----9h10p9-10-----|
Gb|--------------------------| X2
Db|--------------------------|
Ab|--------------------------|
Db|--------------------------|

eb|---------9----|
Bb|--9h10p9------|
Gb|--------------| 
Db|--------------|
Ab|--------------|
Db|--------------|

Guitar 2
eb|---------------------------------------|
Bb|---------------------------------------|
Gb|---------------------------------------|
Db|--44444444-77777777-99999999-00000000--|
Ab|--44444444-77777777-99999999-00000000--|
Db|--44444444-77777777-99999999-00000000--|

eb|-----------------------------|
Bb|-----------------------------|
Gb|-----------------------------|
Db|--44444444-77777777-99999999-|
Ab|--44444444-77777777-99999999-|
Db|--44444444-77777777-99999999-|

Guitars 1 & 2
eb|----------|
Bb|----------|
Gb|----------|
Db|--0-2-4/--|
Ab|--0-2-4/--|
Db|--0-2-4/--|





Calificar esta versión:
Aviso: Este fichero es trabajo propio de su transcriptor y representa su interpretación personal de la canción. El material contenido en esta página es para exclusivo uso privado, por lo que se prohibe su reproducción o retransmisión, así como su uso para fines comerciales.