Monody, Thefatrat (tablatura)

Autor: [anoni]TheLutroster[anoni] | 23703 visualizaciones

Hola a todos! perdonen la demora pero aquí está la tablatura de mi cover de guitarra de Monody!! tardé un poco porque no sabía como ni donde hacer tablaturas hasta que me mandaron esta página jaja, bueno, un abrazo, dejaré lo más detallado que pueda, Gracias por el apoyo en Youtube <3 

Intro: (PARTE 1)

1|----7-9--9-7-------------------------------------------------E
2|-~9----------9--7-5-5~7--7-5--------5--7-9~10--9-5-5~7-------B
3|----------------------------~6--4-6--------------------------G
4|-------------------------------------------------------------D
5|-------------------------------------------------------------A
6|-------------------------------------------------------------E

Intro: (PARTE 2)

1|-------9--11-9-------------------------------------------------E
2|-~9-12---------12-9--7-5-5~7-9-7-5----------5--7-9-7--5---5----B
3|------------------------------------~6--4-6-------------6------G
4|---------------------------------------------------------------D
5|---------------------------------------------------------------A
6|---------------------------------------------------------------E

-Puente-

Coro: (PARTE 1)(dos veces)

1|--------------------|-------------------------|------------------|-7~9-7------------7-7-------E
2|--------7---------7-|~9--9--9-7---9-7----7--9-|--------7---------|--------9-7---7-9-----9-7---B
3|~6--6-9----6--6-9---|-----------9------9------|~6--6-9----6--6-9-|------------9-------------9-G X2
4|--------------------|-------------------------|------------------|----------------------------D
5|--------------------|-------------------------|------------------|----------------------------A
6|--------------------|-------------------------|------------------|----------------------------E

Coro: (PARTE 2)(dos veces)

1|--------------------|~16--16-16-14-12--16-14--12-14-16-|------------------|~21-19---------------19-19----------E
2|--------7---------7-|----------------------------------|---------7--------|------21-19----19-21-------21-19----B
3|~6--6-9----6--6-9---|----------------------------------|~6--6-9----6--6-9-|------------21-------------------21-G X2
4|--------------------|----------------------------------|------------------|------------------------------------D
5|--------------------|----------------------------------|------------------|------------------------------------A
6|--------------------|----------------------------------|------------------|------------------------------------E

Outro (PARTE 1)

1|-16-19-21--21-19-16--14-12~14--14-12~9--7-9-12--14-16-17--16-12-12~14--E
2|-----------------------------------------------------------------------B
3|-----------------------------------------------------------------------G 
4|-----------------------------------------------------------------------D
5|-----------------------------------------------------------------------A
6|-----------------------------------------------------------------------E

Outro (PARTE 2)

1|-16-19-21--21^23^21-19-16--14-12-14--14^16^14-12-9--7-9-12--14-16-14--12-9-12--E
2|-------------------------------------------------------------------------------B
3|-------------------------------------------------------------------------------G 
4|-------------------------------------------------------------------------------D
5|-------------------------------------------------------------------------------A
6|-------------------------------------------------------------------------------E

Y ESAS SON LAS TABLATURAS!! lo siento por demorar tanto, aquí les dejo el video del cover por si quieren apoyarse visualmente ^^
un abrazo, subscribanse si les gusta!!!!

https://www.youtube.com/watch?v=rXFCSybSs8M
Calificar esta versión:
Aviso: Este fichero es trabajo propio de su transcriptor y representa su interpretación personal de la canción. El material contenido en esta página es para exclusivo uso privado, por lo que se prohibe su reproducción o retransmisión, así como su uso para fines comerciales.