Siempre Fue Asi, The Yang Band (yangs) (tablatura)

Autor: jesus344 | 42464 visualizaciones



intro:
bajo:
F-------------------------------------|
C-------------------------------------|x4
G-------------------------------------|
D--0-0--0-0-0--0-0-0--0-3-3--5-5------|
 
guitarra:
D----3-----|
A----3-----|
F----0-----|
C----------|
G----------|
D----------|

1 verso: 
comienza a cantar luis(bajista):

D------------------------|
A------------------------|
F--99-999-999-9----------|
C--99-999-999-9--55--77--|x8
G--77-777-777-7--55--77--|
D----------------33--55--|

Ya no te quiero encontrar, otra vez tus ojos me atraparan
Ya no te quiero ver, ya no te quiero ver
Diseñe una ruta de evacuación, todo está pensado a la perfección
Pero otra vez te veo, pero otra vez te encuentro.

2 verso:
canta hito(vocal):

D----------------------------------------------------|
A----------------------------------------------------|
F-555555555555555---999999999--555--777--------------|
C-555555555555555---999999999--555--777--555--77777--|
G-333333333333333---777777777--333--555--555--77777--|x2
D----------------------------------------333--55555--|
 
Por primera vez, no me acercaré,
Por primera vez, no me acercaré.

coro:
D------------------------------------------------------------|
A------------------------------------------------------------|
F------------7-7-7-777--9-9-9-9-999---555--777---------------|
C-5-5-5-555--7-7-7-777--9-9-9-9-999---555--777----555--777-2-|
G-5-5-5-555--5-5-5-555--7-7-7-7-777---333--555----555--777-2-|
D-3-3-3-333---------------------------------------333--555-0-|
 
Siempre que intenté yo te perdí y te busqué, te encontré
Siempre fue así, siempre tú
Siempre que intenté yo te perdí y te busqué, te encontré
Siempre fue así, siempre tú

bajo:
F-------------------------------------|
C-------------------------------------|x2
G-------------------------------------|
D--0-0--0-0-0--0-0-0--0-3-3--5-5------|


3verso:

D------------------------|
A------------------------|
F--99-999-999-9----------|
C--99-999-999-9--55--77--|x8
G--77-777-777-7--55--77--|
D----------------33--55--|

Déjame por favor en paz
No quiero verte nunca más
Siempre cuando lo intento
Siempre cuando lo intento


Otra estrategia de evacuación
No es tan suicida pero es otra opción
Este es mi último intento
Este es mi último intento.

pre-coro:

D----------------------------------------------------|
A----------------------------------------------------|
F-555555555555555---999999999--555--777--------------|
C-555555555555555---999999999--555--777--555--77777--|
G-333333333333333---777777777--333--555--555--77777--|x2
D----------------------------------------333--55555--|
Por primera vez, no me acercaré,
Por primera vez, no me acercaré.

coro:
D------------------------------------------------------------|
A------------------------------------------------------------|
F------------7-7-7-777--9-9-9-9-999---555--777---------------|
C-5-5-5-555--7-7-7-777--9-9-9-9-999---555--777----555--777-2-|
G-5-5-5-555--5-5-5-555--7-7-7-7-777---333--555----555--777-2-|
D-3-3-3-333---------------------------------------333--555-0-|

Siempre que intenté yo te perdí y te busqué, te encontré
Siempre fue así, siempre tú
Siempre que intenté yo te perdí y te busqué, te encontré
Siempre fue así, siempre tú

Siempre fue así yo te busqué
Siempre tú, siempre tú, siempre tú

Siempre fue así yo te busqué
Siempre dio el mismo resultado
Siempre tú 

bajo:
F-------------------------------------|
C-------------------------------------|x4
G-------------------------------------|
D--0-0--0-0-0--0-0-0--0-3-3--5-5------|


guitarra:
D----3--2---|
A----3--3---|
F----0--0---|
C-----------|
G-----------|
D-----------|





en el coro hay una guitarra en el fondo qe se oye mas o menos asi:
D--14-14-14--15-15-15--14-14-14--15-15-15--3-2-3-2-3-2--|
A---------------------------------------------3---3---3-|
F-------------------------------------------------------|
C-------------------------------------------------------|
G-------------------------------------------------------|
D-------------------------------------------------------|



pochi?





Calificar esta versión:
Aviso: Este fichero es trabajo propio de su transcriptor y representa su interpretación personal de la canción. El material contenido en esta página es para exclusivo uso privado, por lo que se prohibe su reproducción o retransmisión, así como su uso para fines comerciales.