I Can't Explain, The Who (tablatura)

Autor: ledfacu | 15530 visualizaciones



------9---------------------------|
------9---------------------------|      
------9---11----------------------|
------9---11----------------------|
------9---------------------------|                              
------9---------------------------|    


------7---------------------------|
------7---------------------------|
------7---9-----------------------| x2
------7---9-----------------------|
------7---------------------------|
------7---------------------------|



------7---------------------------|
------7---------------------------|
------7---------------------------| 
------7---9-----------------------|
------7---9-----------------------|
------7---------------------------|



------9---------------------------|
------9---------------------------|
------9---11----------------------|
------9---11----------------------| x2
------9---------------------------|                              
------9---------------------------|





Comentarios del colaborador: soy un novato siiiiiiiiiiiiiiiii

Calificar esta versión:
Aviso: Este fichero es trabajo propio de su transcriptor y representa su interpretación personal de la canción. El material contenido en esta página es para exclusivo uso privado, por lo que se prohibe su reproducción o retransmisión, así como su uso para fines comerciales.