Baba O' Riley, The Who (tablatura)

Autor: cthz0811 | 45514 visualizaciones



RIFF 1

e|---------------|
B|---------------|
G|------4---2----|
D|-2----4---2----|
A|-2----2---0----|
E|-0-------------|


PUENTE

e|---------------|
B|---------------|
G|-4----4----4---|
D|-4----4----4---|
A|-2----2----2---|
E|---------------|


RIFF 2

e|-----------------------|
B|-----------------------|
G|-4--------4--------4---|
D|-4--------4--------4---|
A|-2--------2--------2---|
E|-----------------------|


Out here in the fields 

I farm for my meals 

I get my back into my living.
 
I don't need to fight
 

To prove I'm right 

I don't need to be forgiven. 

yeah, yeah, yeah, yeah, yeah 


EMPIEZA EL RIFF 1 x6

PUENTE Y SE PARA LA MÚSICA


Don't cry 

Don't raise your eye 

It's only teenage wasteland 


VUELVE EL RIFF 1


Sally, take my hand 

We'll travel south cross land 

Put out the fire 

And don't look past my shoulder.
 
The exodus is here 

The happy wolds are near 

Let's get together 

Before we get much older. 


SOLO

e|-13-13-13-13----------------13-15-13-15-15-13-----------------|
B|--------------13-13/15-15-15-------------------15-13-15p13h15-|
G|--------------------------------------------------------------|
D|--------------------------------------------------------------|
A|--------------------------------------------------------------|
E|--------------------------------------------------------------|

e|---------------------------|
B|-13^-13^-13^-13^-13^-13^---|
G|---------------------------|
D|---------------------------|
A|---------------------------|
E|---------------------------|


VUELVE EL RIFF 1


Teenage wasteland 

It's only teenage wasteland. 

Teenage wasteland 

Oh, yeah 

Teenage wasteland 

They're all wasted!


RIFF 2 HASTA EL SOLO DE VIOLÍN





Calificar esta versión:
Aviso: Este fichero es trabajo propio de su transcriptor y representa su interpretación personal de la canción. El material contenido en esta página es para exclusivo uso privado, por lo que se prohibe su reproducción o retransmisión, así como su uso para fines comerciales.