Glad You Came, The Wanted (tablatura)

Autor: WANTED | 42893 visualizaciones



E----------------------------------------------------------------
B----------------------------------------------------------------
G-------4-2-----------------4-2----------2--------4-2---------2--
D--222-------444--2-0-----------444-2-4----4----------444-2-4----
A---------------------222---------------------222----------------
E----------------------------------------------------------------

 ----------------------------------------------------------------
 ----------------------------------------------------------------
 ----------------------------------------------------------------
 ----4------4-2-0---4-2-0----------------------------------------
 -------22--------2-------2--------------------------------------
 ----------------------------------------------------------------





Comentarios del colaborador: Esta es mi primera cancion por eso no se si tiene errores la saque por oido

Calificar esta versión:
Aviso: Este fichero es trabajo propio de su transcriptor y representa su interpretación personal de la canción. El material contenido en esta página es para exclusivo uso privado, por lo que se prohibe su reproducción o retransmisión, así como su uso para fines comerciales.