Ride, The Vines (tablatura)

Autor: the_lord | 18909 visualizaciones



Intro/Verse:   
 
e--0-0-x-x--0-0--x-x--0-0---------2-2--------- 
B--2-2-x-x--2-2--x-x--2-2---------2-2--------- 
G--4-4-x-x--4-4--x-x--4-4---1-1---3-3--------- 
D--3-3-x-x--3-3--x-x--3-3---2-2---4-4--------- 
A--4-4-x-x--4-4--x-x--4-4---2-2---4-4--------- 
E---------------------------0-0---2-2--------- 
 
 
Thats the start the middle and the end.... 
Aren't you glad the universe pretends...  
If I don't get this message home... 
Once again I'm gonna head alone.  
 
Chorus:  
 
C#5      A5 
Ride with me  
Ride with me  
              E5 F#5 
Ride with me, Oooh  
 
C#5      A5 
Ride with me  
Ride with me 
              E5 F#5 
Ride with me, Oooh  
 
(Over intro/verse riff) 
Thought alot and got a right to be  
Invite me down because we like to see  
The colors through your loaded mind  
*** the world and liberate our time  
 
Then Play the Chorus.....Followed by:  
 
Bridge:  
 
And I've waited a long life  
And I've waited alone 
 
e--5-5-----------3-3------------2------------ 
B--5-5-----------3-3------------2------------ 
G--6-6--6-7-6----4-4--4-5-4-----3--3-4-3----- 
D--7-7--------7--5-5--------5---4--------4--- 
A--7-7-----------5-5------------4------------ 
E--5-5-----------3-3------------2------------ 
 
Palm mute an F#5...then
 
e-------------------------------------- 
B-------------------------------------- 
G---6~(8x)-9~(8x)-12~(8)--------------- 
D-------------------------------------- 
A-------------------------------------- 
E-------------------------------------- 
 
Back to the intro/verse...Then the chorus. 





Comentarios del colaborador: http://www.losacordes.com/tablatura/the-vines/ride-(ver-2)

Calificar esta versión:
Aviso: Este fichero es trabajo propio de su transcriptor y representa su interpretación personal de la canción. El material contenido en esta página es para exclusivo uso privado, por lo que se prohibe su reproducción o retransmisión, así como su uso para fines comerciales.