Great Dj, The Ting Tings (tablatura)

Autor: fherxo | 19917 visualizaciones

Verse:

Guitar:
     D        D aug
e|---22222222-2222-2-2---------------|
B|---33333333-3333-3-3---------------|
G|---22222222-3333-3-3---------------|
D|---00000000-0000-0-0---------------|
A|-----------------------------------|
E|-----------------------------------|

2nd Guitar:
e|-----------------------------------|
B|-----------------------------------|
G|---77-77---------------------------|
D|-----------------------------------|
A|-----------------------------------|
E|-----------------------------------|

Bass:
G|-----------------------------------|
D|---00000000-00000000---------------|
A|-----------------------------------|
E|-----------------------------------|


Chorus:

2nd Guitar:
e|---8888----101010------------------|
B|-------8888------10-1010-----------|
G|-----------------------------------|
D|-----------------------------------|
A|-----------------------------------|
E|-----------------------------------|

Bass:
G|-----------------------------------|
D|---00000000------------------------|
A|-----------00000000----------------|
E|-----------------------------------|

Post Chorus: (And the drums, the drums...)

Guitar:
(This can also be played during the chorus)
     D         Am
e|---22222222--0000-0-0--------------|
B|---33333333--1111-1-1--------------|
G|---22222222--2222-2-2--------------|
D|---00000000--2222-2-2--------------|
A|-------------0000-0-0--------------|
E|-----------------------------------|
Calificar esta versión:
Aviso: Este fichero es trabajo propio de su transcriptor y representa su interpretación personal de la canción. El material contenido en esta página es para exclusivo uso privado, por lo que se prohibe su reproducción o retransmisión, así como su uso para fines comerciales.