Wipe Out, The Surfaris (tablatura)

Autor: -slsh-cj- | 44360 visualizaciones

lider
         [A7]
 ------||-----------------|---------------|---------------|------------------|
 ------||-----------------|---------------|---------------|------------------|
 ------||-----------------|-----o-//------|-----o-//------|-------------5-6--|
 ---5-6||-7-7-7-5-----5-6-|------//-o-----|------//-o-----|-7-7-7-5---7------|
 -7----||---------7-7-----|---------------|---------------|---------7--------|
 ------||-----------------|---------------|---------------|------------------|
  & 4 &
  [D7(D9)]                              [A7]
 |------------------|------------------|------------------|------------------|
 |------------------|------------------|------------------|------------------|
 |-7-7-7-5-----5-6--|-7-7-7-5----------|------------------|-------------6-7/-|
 |---------7-7------|---------7---5-6--|-7-7-7-5-----5-6--|-7-7-7-5---7------|
 |------------------|-----------7------|---------7-7------|---------7--------|
 |------------------|------------------|------------------|------------------|

  [E7(E9)]           [D7(D9)]           [A7]               [E7]
 |------------------|------------------|------------------|-----------------||
 |------------------|------------------|------------------|-----------------||
 |/9-9-9-7-----9-8--|-7-7-75----------|------------------|-----------------||
 |---------9-9------|---------7---5-6--|-7-7-7-5-----7-5--|-----------------||
 |------------------|-----------7------|---------7-7------|-7-7-7-7===------||
 |------------------|------------------|------------------|-----------------||



   A7                                              D9
 |-5----------|-----------|-5---------|-----------|-5---------|-------------|
 |-5----------|-----------|-5---------|-----------|-5---------|-------------|
 |-6----------------------|-6---------------------|-5-----------------------|
 |-5----------|-----------|-5---------|-----------|-4---------|-------------|
 |-7----------|-----------|-7---------|-----------|-5---------|-------------|
 |-5----------|-----------|-5---------|-----------|-----------|-------------|

   A7                      E9          D9         A7      E7#9*    lider
 |-5---------|----------|-7--------|-5--------|-5--------|-----------------||
 |-5---------|----------|-7--------|-5--------|-5--------|---8---8---------||
 |-6--------------------|-7--------|-5--------|-6--------|---7---7---------||
 |-5---------|----------|-6--------|-4--------|-5--------|---6---6-----5-6-||
 |-7---------|----------|-7--------|-5--------|-7--------|---7---7---7-----||
 |-5---------|----------|----------|----------|-5--------|-----------------||

Comentarios del colaborador: bueno el tema esta mortal comenten XD

Calificar esta versión:
Aviso: Este fichero es trabajo propio de su transcriptor y representa su interpretación personal de la canción. El material contenido en esta página es para exclusivo uso privado, por lo que se prohibe su reproducción o retransmisión, así como su uso para fines comerciales.