Trying Your Luck, The Strokes (tablatura)

Autor: strecho strokero | 30716 visualizaciones



Trying your Luck – The Strokes 

Intro:
Guitarra: Nick Valensi

                                             
E||-------------1-1---1---------------3-3---3-----------------------||
B||--1-1---1----1-1---1----6-6---6----3-3---3-----------------------||
G||--2-2---2----2-2---2----7-7---7----4-4---4-----------------------||X2
D||--2-2---2----3-3---3----7-7---7----5-5---5----2-2---2------------||
A||-------------3-3---3----5-5---5----5-5---5----2-2---2------------||
E||-------------1-1---1---------------------------------------------||

**********************************************************************
verso:

E||-------------1-1---1---------------3-3---3-----------------------||
B||--1-1---1----1-1---1----6-6---6----3-3---3-----------------------||
G||--2-2---2----2-2---2----7-7---7----4-4---4-----------------------||X2
D||--2-2---2----3-3---3----7-7---7----5-5---5----2-2---2------------||
A||-------------3-3---3----5-5---5----5-5---5----2-2---2------------||
E||-------------1-1---1---------------------------------------------||

Pre-coro

E||-----------------------------------------------------------------||
B||-----------------------------------------------------------------||
G||---14--14141414--14--1414-------9--9999--9--99-------------------||
D||----x---x-x-x-x---x---x-x-X2----x--xxxx--x--xx—-X2--2-2----------||
A||---12--12121212--14--1212-------7--7777--9--77------2-2----------||
E||-----------------------------------------------------------------||

verso:

E||-------------1-1---1---------------3-3---3-----------------------||
B||--1-1---1----1-1---1----6-6---6----3-3---3-----------------------||
G||--2-2---2----2-2---2----7-7---7----4-4---4-----------------------||
D||--2-2---2----3-3---3----7-7---7----5-5---5----2-2---2------------||
A||-------------3-3---3----5-5---5----5-5---5----2-2---2------------||
E||-------------1-1---1---------------------------------------------||

E||-------------1-1---1---------------3-3-3-3-----------------------||
B||--1-1---1----1-1---1----6-6---6----3-3-3-3-----------------------||
G||--2-2---2----2-2---2----7-7---7----4-4-4-4-----------------------||
D||--2-2---2----3-3---3----7-7---7----5-5-5-5----2-2-2-2-2----------||
A||-------------3-3---3----5-5---5----5-5-5-5----2-2-2-2-2----------||
E||-------------1-1---1---------------------------------------------||


Coro
Guitarra  con rasgueo hacia abajo
     
E||-----------1--------------3------------------------------------||
B||--1--------1------6-------3------------------------------------||
G||--2—X8-----2-X8---7-X8----4-X8---------------------------------||X4
D||--2--------3------7-------5------2-X8--------------------------||
A||------------------5-------5------2-----------------------------||
E||---------------------------------------------------------------||



verso:

E||-------------1-1---1---------------3-3---3-----------------------||
B||--1-1---1----1-1---1----6-6---6----3-3---3-----------------------||
G||--2-2---2----2-2---2----7-7---7----4-4---4-----------------------||X4
D||--2-2---2----3-3---3----7-7---7----5-5---5----2-2---2------------||
A||-------------3-3---3----5-5---5----5-5---5----2-2---2------------||
E||-------------1-1---1---------------------------------------------||

Pre-coro

E||-----------------------------------------------------------------||
B||-----------------------------------------------------------------||
G||---14--14141414--14--1414-------9--9999--9--99-------------------||
D||----x---x-x-x-x---x---x-x-X2----x--xxxx--x--xx—-X2--2-2----------||
A||---12--12121212--14--1212-------7--7777--9--77------2-2----------||
E||-----------------------------------------------------------------||

Solo:

E||------------------------------------------------------------------------||
B||--13-12------13-12-------------13-15-15br-13-----------13-15-15br-13-12-||
G||--------14----------14---12/14---------------14--12/14------------------||
D||------------------------------------------------------------------------||
A||------------------------------------------------------------------------||
E||------------------------------------------------------------------------||

E||--17br-15-----------------------------------------------12b---15b-1717171717b-||
B||----------18-17-15----------------------------------13—-12b---15b-1717171717b-||
G||-------------------17-16---14p16-16-16--14p16-16-16---------------------------||X2
D||------------------------------------------------------------------------------||
A||------------------------------------------------------------------------------||
E||------------------------------------------------------------------------------||


Coro
     
E||-----------1--------------3------------------------------------||
B||--1--------1------6-------3------------------------------------||
G||--2—X8-----2-X8---7-X8----4-X8---------------------------------||X3
D||--2--------3------7-------5------2-X8--------------------------||
A||------------------5-------5------2-----------------------------||
E||---------------------------------------------------------------||

E||-----------1--------------3------------------------------------||
B||--1--------1------6-------3------------------------------------||
G||--2—X8-----2-X8---7-X8----4-X8---------------------------------||
D||--2--------3------7-------5------2-2-2-2-2-2-------------------||
A||------------------5-------5------2-2-2-2-2-2-------------------||
E||-----------------------------------------3-4-5b----------------||





Comentarios del colaborador: pues ahi le dejo esta version que es la parte que toca valensi a esepsion del el solo

Calificar esta versión:
Aviso: Este fichero es trabajo propio de su transcriptor y representa su interpretación personal de la canción. El material contenido en esta página es para exclusivo uso privado, por lo que se prohibe su reproducción o retransmisión, así como su uso para fines comerciales.