Reptilia Solo, The Strokes (tablatura)

Autor: strecho strokero | 46141 visualizaciones



--------------------------------------------------------------------------|
-9-7--7---------------7--9-7--7-------------------9-7--7----------------7-|
----9---9-7-9-7-6-7-6--------9---9-7-9-7-6-7-6--------9---9-7-9-7-6-7-6---|
-----------------------------------------------9--------------------------|
--------------------------------------------------------------------------|
--------------------------------------------------------------------------|


---------------------|
-9-7--7--------------|
-----9---9-7---------|
-------------9-------|
---------------------|
---------------------|


-------7-----------------------10b-9-----------------|
--10b------10p9-----------------------10p9-----------|
---------------11p9-11--7-----------------11p9-11--7|
----------------------------------------------------|
----------------------------------------------------|
----------------------------------------------------|

-12b13r12---10p9---------------12b13r12---10p9----------|
-----------------12p10--12-9---------------------12--9b-|
--------------------------------------------------------|
--------------------------------------------------------|
--------------------------------------------------------|
--------------------------------------------------------|


----------------------------------------------|
-9-7--7---------------7--9-7--7---------------|
----9---9-7-9-7-6-7-6--------9---9-7-9-7-6-4--|
----------------------------------------------|
----------------------------------------------|
----------------------------------------------|





Calificar esta versión:
Aviso: Este fichero es trabajo propio de su transcriptor y representa su interpretación personal de la canción. El material contenido en esta página es para exclusivo uso privado, por lo que se prohibe su reproducción o retransmisión, así como su uso para fines comerciales.