Alone Together, The Strokes (tablatura)

Autor: chch | 45399 visualizaciones



intro

Guitarra 1:

(riff a)
---------------------------------------------------------------
---------------------------------------------------------------
---------5--------------------------------5--------------------
--------------7------------------------------7----------5--7---
------------------7--7--5--7--------------------7--7-----------
--5--5-----------------------------5--5------------------------


Baixo:

--------5--2---------0--2------
---------------2--2------------
-0--0--------------------------
-------------------------------





Calificar esta versión:
Aviso: Este fichero es trabajo propio de su transcriptor y representa su interpretación personal de la canción. El material contenido en esta página es para exclusivo uso privado, por lo que se prohibe su reproducción o retransmisión, así como su uso para fines comerciales.