Hawai, The Shadows (tablatura)

Autor: Skylan | 33057 visualizaciones



-----------------------|-------------------|-----------------------|
---------------3-------|-------------------|-----------------------|
------------3-------5--|-------------------|---------------3-------|
------5--5-------------|--------5----------|------5--5--3-------5--|
-----------------------|-------------------|-----------------------|
-----------------------|-------------------|-----------------------|


                                                               
------------------|-----------------------|--------3----------|
------------------|---------------3-------|-------------------|
------------------|------------3-------5--|-------------------|
------------------|------5--5-------------|-------------------|
------------------|-----------------------|-------------------|
------------------|-----------------------|-------------------|


                                                              
--------------------3--|------------------|------------------|
------6--6--3----------|------------------|------------------|
---------------3-------|------------------|------------------|
-----------------------|------------------|------------------|
-----------------------|------------------|------------------|
-----------------------|------------------|------------------|


                                                                       
------6----3-----------|----------------------|------8----5-----------|
--------------6--4-----|----------------------|--------------8--6-----|
--------------------5--|----------------------|--------------------7--|
-----------------------|--5--3----------------|-----------------------|
-----------------------|--------6--3----------|-----------------------|
-----------------------|----------------------|-----------------------|


                                                                      
------------------------|--------------------|-----------------------|
------------------------|---------8----------|------6--6-------------|
--5-------------5--7----|--5-----------------|------------7-------5--|
-----8--6--8------------|--------------------|---------------8-------|
------------------------|--------------------|-----------------------|
------------------------|--------------------|-----------------------|


                                                                 
---------------------|------------------|-----------------------|
---------------------|------------------|---------------4-------|
------------5--5-----|------------------|------------4-------6--|
------------------6--|------------------|------6--6-------------|
---------------------|------------------|-----------------------|
---------------------|------------------|-----------------------|


                                                               
-------------------|-----------------------|------------------|
-------------------|-----------------------|------------------|
-------------------|---------------4-------|------------------|
--------6----------|------6--6--4-------6--|------------------|
-------------------|-----------------------|------------------|
-------------------|-----------------------|------------------|


                                                                    
-----------------------|--------4----------|--------------------4--|
---------------4-------|-------------------|------7--7--4----------|
------------4-------6--|-------------------|---------------4-------|
------6--6-------------|-------------------|-----------------------|
-----------------------|-------------------|-----------------------|
-----------------------|-------------------|-----------------------|


                                                               
------------------|------------------|------7--5--4-----------|
------------------|------------------|---------------7--5--4--|
------------------|------------------|------------------------|
------------------|------------------|------------------------|
------------------|------------------|------------------------|
------------------|------------------|------------------------|


                                                                          
----------------------|------9--7---------------|------------------------|
-----4----------------|------------10--8--------|------------------------|
--6--------6----------|-------------------9--7--|--6-----6--8----6--4----|
--------6-------------|-------------------------|-----9------------------|
----------------------|-------------------------|------------------------|
----------------------|-------------------------|------------------------|


                                                                
---------4----------|-----------------------|------------------|
--------------------|------7--7--4----------|------------------|
--6-----------------|---------------4----6--|------------------|
--------------------|-----------------------|------------------|
--------------------|-----------------------|------------------|
--------------------|-----------------------|------------------|


                                                               
------------------|-----------------------|-------------------|
------------------|---------------5-------|-------------------|
------------------|------------5-------7--|-------------------|
------------------|------7--7-------------|--------7----------|
------------------|-----------------------|-------------------|
------------------|-----------------------|-------------------|


                                                                   
-----------------------|------------------|-----------------------|
-----------------------|------------------|---------------5-------|
---------------5-------|------------------|------------5-------7--|
------7--7--5-------7--|------------------|------7--7-------------|
-----------------------|------------------|-----------------------|
-----------------------|------------------|-----------------------|


                                                               
--------5----------|--------------------5--|------------------|
-------------------|------8--8--5----------|------------------|
-------------------|---------------5-------|------------------|
-------------------|-----------------------|------------------|
-------------------|-----------------------|------------------|
-------------------|-----------------------|------------------|


                                                                 
------------------|------5---------------|----------------------|
------------------|-------------8--6--5--|-----5----------------|
------------------|----------------------|--7--------7----------|
------------------|----------------------|--------7-------------|
------------------|----------------------|----------------------|
------------------|----------------------|----------------------|


                                                                      
------10------8--6-----|------------------------|---------5----------|
--------------------9--|--8--6------------------|--------------------|
-----------------------|--------7--9----7--5----|--7-----------------|
-----------------------|------------------------|--------------------|
-----------------------|------------------------|--------------------|
-----------------------|------------------------|--------------------|


                                                                     
-----------------------|------------------|------------------8--10--|
------8--8--5----------|------------------|------8--8-----8---------|
---------------5----7--|------------------|------------9------------|
-----------------------|------------------|-------------------------|
-----------------------|------------------|-------------------------|
-----------------------|------------------|-------------------------|


                                                                            
------------------|------------------|------------------|------------------|
------------------|------------------|------------------|------------------|
------------------|------------------|------------------|------------------|
------------------|------------------|------------------|------------------|
------------------|------------------|------------------|------------------|
------------------|------------------|------------------|------------------|


                                                              
------------------|------------------|-----------------------|
------------------|------------------|-----------------------|
------------------|------------------|---------------4----2--|
------------------|------------------|------0--0--3----------|
------------------|------------------|-----------------------|
------------------|------------------|-----------------------|


                                                                        
-----------------------|---------------5----3--|-----------------------|
---------------5----3--|------3--3--6----------|---------------3-------|
------2--2--5----------|-----------------------|------------3-------5--|
-----------------------|-----------------------|------5--5-------------|
-----------------------|-----------------------|-----------------------|
-----------------------|-----------------------|-----------------------|


                                                                     
---------------3-------|---------------8----6--|------6--------8----|
------------4-------6--|------6--8--9----------|--------------------|
------5--5-------------|-----------------------|--------------------|
-----------------------|-----------------------|--------------------|
-----------------------|-----------------------|--------------------|
-----------------------|-----------------------|--------------------|


                                            
------10------------|---------------------||
--------------------|---------------------||
--------------------|---------------------||
--------------------|---------------------||
--------------------|------5--5--5--------||
--------------------|---------------------||

Chords

Cm 	A#   	Cm 	D#  	Cm 	A# 	D#   	G

Cm	F	G#__A#   Cm	G#__A#	Cm    	C#m


C#m 	B	C#m	 E	C#m	 B	E	G#

C#m	F#  	A__B   C#m	A__B		C#m	Dm


Dm 	C	Dm	F	Dm	C	F	A

Dm  	G	A#__C	  Dm	A#__C		Dm

A#__C	  Dm	A#__C	  Dm	Am	Dm






Calificar esta versión:
Aviso: Este fichero es trabajo propio de su transcriptor y representa su interpretación personal de la canción. El material contenido en esta página es para exclusivo uso privado, por lo que se prohibe su reproducción o retransmisión, así como su uso para fines comerciales.