Fbi, The Shadows (tablatura)

Autor: Skylan | 45479 visualizaciones



-|-----------------------------------------5----------------------------------
-|-------------------------------------------8-5-------5-5--------------------
-|---5-7/9----7-5------5-7/9----7-5------5-------7-5-7-----7-5----------------
-|-7--------7-----7--7--------7-----7--7-----------------------7--------------
-|----------------------------------------------------------------------------
-|----------------------------------------------------------------------------
                                                                              

------------------------------------------------|-----------------------------
-------5-------5-------5------------------------|-----------------------------
---5-7---7-5-7---7-5-7---7-5---7-5--------------|-----------------------------
-7---------------------------7-----7-7----5/7-7-|-----------------------------
----------------------------------------7-------|-----------------------------
------------------------------------------------|-----------------------------
                                                                              

-|------------------------------------------5---------------------------------
-|------------------------------------------5-8-5-------5-5-------------------
-|----5-7/9----7-5------5-7/9----7-5------5-------7-5-7-----7-5---------------
-|-7---------7-----7--7--------7-----7--7-----------------------7-------------
-|----------------------------------------------------------------------------
-|----------------------------------------------------------------------------
                                                                              

-------------------------------------------------|----------------------------
-------5-------5-------5-------5-----------------|----------------------------
---5-7---7-5-7---7-5-7---7-5-7---7-5-------------|----------------------------
-7-----------------------------------7-7---5/7-7-|----------------------------
-----------------------------------------5-------|----------------------------
-------------------------------------------------|----------------------------
                                                                              

-|----------------------------------------------------------------------------
-|----------------------------------------------------------------------------
-|--------------------------------------------5-5-----------------------------
-|-------6-6-9-9-6-6--------5-5-----------7-7-----6/7-------6-6-9-9-6-6-------
-|-5/7-7------------7-----7-----6/7---8-8-------------8-7-7-------------7-----
-|--------------------8-8-----------8-------------------------------------8-8-
                                                                              





----------------------------|-------------------------------------------------
----------------------------|-------------------------------------------------
--------------------5-5-----|-------------------------------------------------
-----5-5--------7-7-----7---|-------------------6-----------------------------
-7-7----7---8-8-----------8-|-----6-6-9-9-6-6---7-7-5-6-7------6-6-9-9-6-6----
----------8-----------------|-7-7-------------7------------7-7----------------
                                                                             
                     A (5th pos)
------------------------|-----------------------------------------------------
------------------------|-----------------------------------------------------
------------------------|-------------------------------------2-0-------------
------------------------|-----2----0----------2----0--------------2-0---0-2-2-
--7-7-5-5---------------|-0-3----0---3-0--0-3----0---3-0--0-3---------3-------
----------8-8-7-7-5-----|-----------------------------------------------------
                                                                              

-----------------------------------------------|---------|--------------------
-----------------------------------------------|---------|--------------------
-----------------------------------------------|---------|--------------------
---0----------0-2-0---0-2-0---0-2-0------0-----|---------|--------------------
-----3-0--0-3-------3-------3-------3-0----3-0-|---------|--------------------
-----------------------------------------------|-0-3/5-5-|--------------------
                                                                              

-12-----12----12-------|-12-----12-------------|-12-----12-------------|------
----15b----------15-13-|----15b-------13-15-13-|----15b-------13-15-13-|------
-----------14----------|-----------14----------|-----------14----------|------
-----------------------|-----------------------|-----------------------|------
-----------------------|-----------------------|-----------------------|------
-----------------------|-----------------------|-----------------------|------
                                                                              

-12-----12-----12-----12-|--------12-----12--------------------------------12-
----15b----15b----15b----|-15-15b----15b----13----------------13-----------13-
-------------------------|---------------------14-12----12-14----14-12-14--14-
-------------------------|---------------------------14-----------------------
-------------------------|----------------------------------------------------
-------------------------|----------------------------------------------------
                                                                              

-|---11/12-12-11/12-12-11/12-12-11/12-12-11/12-11/12-12--11*12--11*12--11*12--
-|----------------------------------------------------------------------------
-|----------------------------------------------------------------------------
-|----------------------------------------------------------------------------
-|----------------------------------------------------------------------------
-|----------------------------------------------------------------------------
                                                                              

-|----------12----12----12|---------------------------------------------------
-|-15-13----13----13----13|---------------------------------------------------
-|-------14----14----14---|---------------------------------------------------
-|------------------------|---------------------------------------------------
-|------------------------|---------------------------------------------------
-|------------------------|---------------------------------------------------
                                                                              


-|----------------------------------------------------------------|-----------
-|----------------------------------------------------------------|-----------
-|---------------------------------------------5-5----------------|-----------
-|-------6-6-9-9-6-6---------5-5-----------7-7-----6/7---6---4-5-6|-----------
-|-5/7-7-------------7-----7-----6/7---8-8-------------8-7-7-5-6-7|-----------
-|---------------------8-8-----------8----------------------------|-----------
                                                                              

-----------------------------------------------|------------------------------
-----------------------------------------------|------------------------------
-----------------------------------------------|------------------------------
-----------------------------------------------|-----------------6---4-5-6----
-------7-7--10-10-7---7/8-8-7/8-8-7/-8-8-7/8-8-|-----6-6-9-9-6---7-7-5-6-7-7--
-7/8-8--------------8--------------------------|-7-7-----------7--------------
                                                                             
                                    A (5th pos)
---|---------------------------------------|--------------------------------|-
---|---------------------------------------|--------------------------------|-
---|-----------8---------------------------|--------------------------------|-
---|-------------9----6-6-4-5-6------------|-----2----0----------2----0-----|-
-7-|-----6-6-6--------7-7-5-6-7-7-7--------|-0-3----0---3-0--0-3----0---3-0-|-
---|-7-7-----------------------------------|--------------------------------|-
                                                                              

---------------------------|--------------------------------------------------
---------------------------|--------------------------------------------------
-----2-0-------------------|--------------------------------------------------
---------2-0---0-2-2-0-----|-----0--2--0-----------0--2--0--------------------
-0-3---------3---------3-0-|-0-3----------3--0--3-----------3--0------0-------
---------------------------|--------------------------------------3/5---------
                                                                              
                   fade                           
------------------------------------------------------------------------------
------------------------------------------------------------------------------
------------------------------------------------------------------------------
------------------------------------------------------------------------------
-------0-5/7--------0-5/7--------0--------0-5/7-------------------------------
-0-3/5--------0-3/5--------0-3/5----0-3/5-------------------------------------
                                                                     





Calificar esta versión:
Aviso: Este fichero es trabajo propio de su transcriptor y representa su interpretación personal de la canción. El material contenido en esta página es para exclusivo uso privado, por lo que se prohibe su reproducción o retransmisión, así como su uso para fines comerciales.