Atlantis, The Shadows (tablatura)

Autor: Skylan | 26991 visualizaciones



E||----------------------|--------------------15----12------|
B||----------------------|--13--13-13-13--13------------13--|
G||----------14----15----|----------------------------------|
D||----------------------|----------------------------------|
A||----------------------|----------------------------------|
E||----------------------|----------------------------------|


                                                          
--------------------13----------|------------------------|
--------------------------------|------------------------|
--15--15-15-15--15--------------|--12--------15----14----|
--------------------------15----|------------------------|
--------------------------------|------------------------|
--------------------------------|------------------------|


                                                            
------------------------|--------------------15----12------|
------------------------|--13--13-13-13--13------------13--|
--12------------14--15--|----------------------------------|
------------------------|----------------------------------|
------------------------|----------------------------------|
------------------------|----------------------------------|


                                                                         
--------------------13----------|--------------------|
--------------------------------|--------------------|
--15--15-15-15--15--------------|--12----------------|
--------------------------15----|--------------------|
--------------------------------|--------------------|
--------------------------------|--------------------|


                                                                                
|--------------------------|-------------------------|-------------------------|
|--------------------------|-------------------------|--1----------------------|
|*-------------------------|---------------0----2----|-------0--------0--------|
|*---------------0----2----|--3----------------------|-------------------------|
|---3----------------------|-------------------------|-------------------------|
|--------------------------|-------------------------|-------------------------|


                                                                       
--------------------|--------------------------|----------------------|
--------------------|----------------1----3----|--1-------------------|
--------------3/-5--|--3--------3--------------|-----------2----------|
--------------------|--------------------------|--------------3-------|
--------------------|--------------------------|-----------------3----|
--------------------|--------------------------|----------------------|


                                                                                
-------------------|--------------------|-------------------|
-------------------|--------------------|-------------------|
--0----------------|----------2---------|-------------------|
-------------------|---------------2----|--4----------------|
-------------------|--------------------|-------------------|
-------------------|--------------------|-------------------|


                                                              
--------------------|-------------------|----------0---------|
----------3----0----|-------------------|---------------3----|
--------------------|--0----------------|--------------------|
--------------------|-------------------|--------------------|
--------------------|-------------------|--------------------|
--------------------|-------------------|--------------------|


                                                                               
---------------------------|---------------------|----------------------------|
--1----1----0--------------|-----------3----1----|----------------------------|
-----------------2----0----|---------------------|--3----3----2----0-------0--|
---------------------------|--3------------------|----------------------3-----|
---------------------------|---------------------|----------------------------|
---------------------------|---------------------|----------------------------|


                                                                          
-----------------------|--------------------||---------------------------|
-----------------------|--------------------||---------------------------|
----------0--0h2p0-----|--0----------------*||--3----3----2----0---------|
--------------------3--|-------------------*||----------------------3----|
-----------------------|--------------------||---------------------------|
-----------------------|--------------------||---------------------------|


                                                                              
-------------------|----------------------|--------------------15----12------|
-------------------|----------------------|--13--13-13-13--13------------13--|
--0----------------|----------14----15----|----------------------------------|
-------------------|----------------------|----------------------------------|
-------------------|----------------------|----------------------------------|
-------------------|----------------------|----------------------------------|


                                                          
--------------------13----------|------------------------|
--11--11-11-11--11--------------|------------11----10----|
--------------------------10----|--12--------------------|
--------------------------------|------------------------|
--------------------------------|------------------------|
--------------------------------|------------------------|


                                                            
------------------------|--------------------15----12------|
------------------------|--13--13-13-13--13------------13--|
--12------------14--15--|----------------------------------|
------------------------|----------------------------------|
------------------------|----------------------------------|
------------------------|----------------------------------|


                                                                         
--------------------13----------|--------------------|
--11--11-11-11--11--------------|--------------------|
--------------------------10----|--12----------------|
--------------------------------|--------------------|
--------------------------------|--------------------|
--------------------------------|--------------------|


                                                                             
-------------------------|--------------------5----|--8---------------------|
--------------------5----|--6------------8---------|-------8----------------|
--5------------7---------|-------------------------|------------------------|
-------------------------|-------------------------|------------------------|
-------------------------|-------------------------|------------------------|
-------------------------|-------------------------|------------------------|


                                                                        
------------6/-8----|--6--------6----8----10----|--8--------5----------|
--------------------|---------------------------|--------------6-------|
--------------------|---------------------------|-----------------5----|
--------------------|---------------------------|----------------------|
--------------------|---------------------------|----------------------|
--------------------|---------------------------|----------------------|


                                                             
-------------------|------------------|---------------------|
--8----------------|------------------|----------10---------|
-------------------|------------------|----------------9----|
-------------------|------------------|---------------------|
-------------------|------------------|---------------------|
-------------------|------------------|---------------------|


                                                                 
--------------------|----------10----------|--------------------|
--------------------|----------------12----|--------------------|
--11----------------|----------------------|--12----------------|
--------------------|----------------------|--------------------|
--------------------|----------------------|--------------------|
--------------------|----------------------|--------------------|


                                                        
----------12----10----|--------------------------------|
----------------------|--13----13----12----10----------|
----------------------|--------------------------12----|
----------------------|--------------------------------|
----------------------|--------------------------------|
----------------------|--------------------------------|


                                                                               
------------10----------|--------------------------------|--------------------|
------------------13----|--11----11----10----------------|--------------------|
--10--------------------|--------------------12----10----|--12----------------|
------------------------|--------------------------------|--------------------|
------------------------|--------------------------------|--------------------|
------------------------|--------------------------------|--------------------|


                                                          
----------------------|--------------------15----12------|
----------------------|--13--13-13-13--13------------13--|
----------14----15----|----------------------------------|
----------------------|----------------------------------|
----------------------|----------------------------------|
----------------------|----------------------------------|


                                                          
--------------------13----------|------------------------|
--------------------------------|------------------------|
--15--15-15-15--15--------------|--12--------15----14----|
--------------------------15----|------------------------|
--------------------------------|------------------------|
--------------------------------|------------------------|


                                                            
------------------------|--------------------15----12------|
------------------------|--13--13-13-13--13------------13--|
--12------------14--15--|----------------------------------|
------------------------|----------------------------------|
------------------------|----------------------------------|
------------------------|----------------------------------|


                                                                            
--------------------13----------|--------------------|---------------1/-3--|
--------------------------------|--------------------|--4------------------|
--15--15-15-15--15--------------|--0--------3--------|---------------------|
--------------------------15----|--------------------|---------------------|
--------------------------------|--------------------|---------------------|
--------------------------------|--------------------|---------------------|


                                                                   
--1----1--------------|--1----1--------------|--------------------|
--------------1----1--|--------------1----1--|--------------------|
----------------------|----------------------|--0--------3--------|
----------------------|----------------------|--------------------|
----------------------|----------------------|--------------------|
----------------------|----------------------|--------------------|


                                                                        
---------------1----|-----------------6----6--|--8-----8-------6----6--|
--4-----------------|--8--10------10--8----8--|--10----10------8----8--|
--------------------|-------------------------|------------------------|
--------------------|-------------------------|------------------------|
--------------------|-------------------------|------------------------|
--------------------|-------------------------|------------------------|


                                                                               
--8-----8-------6----6--|--8-----8-------------|--------------|--------------||
--10----10------8----8--|--10----10------------|--------------|--------------||
------------------------|----------------------|--------------|--------------||
------------------------|----------------------|--------------|--------------||
------------------------|----------------------|--------------|--------------||
------------------------|----------------------|--------------|--------------||

Chords

F  C  Bb  F  Gm    C

F  C  Bb  F   Eb      C

F		C		Bb	F	C

Am		D	Bm		G

C	Am	Bb	Gm		C

F		C		Bb	F	C

Am		D	Bm		G

C	Am	Bb	Gm		C

F  C  Bb  F  Gm    C

F  C  Bb  F   Eb      C

F		C		Bb	F	C

Am		D	Bm		G

C	Am	Bb	Gm		C

F  C  Bb  F  Gm    C

F  C  Bb  F   Eb      

F	C 	F	C	Eb

F	C	F	C	F	C	F





Calificar esta versión:
Aviso: Este fichero es trabajo propio de su transcriptor y representa su interpretación personal de la canción. El material contenido en esta página es para exclusivo uso privado, por lo que se prohibe su reproducción o retransmisión, así como su uso para fines comerciales.