Amapola, The Shadows (tablatura)

Autor: Skylan | 16759 visualizaciones



-|------------------------------------------------------|------6-8-6-8-6-8-9--
-|------------------------------------------------------|----6----------------
-|------------------------------------------------------|--7------------------
-|---3-3-3-3-3-3-----3-3-3-3-3-3-----3-3-3-3-3-3--------|---------------------
-|-0-1-1-1-1-1-1---0-1-1-1-1-1-1---0-1-1-1-1-1-1---0-1--|---------------------
-|------------------------------------------------------|---------------------
     A#                                                                       

-9/10-8-6---66---6---6---5-6-5---5-6-5-------------5-6-5-6-5-6-7-7/8-6-5------
----------8----8---8---8-------8-------8-6-5-----8-----------------------6----
---------------------------------------------8-8------------------------------
------------------------------------------------------------------------------
------------------------------------------------------------------------------
------------------------------------------------------------------------------
                                                                              

-----5---5-----5-------5----------------6-8-6-8-6-8-9-9/10-8-6---66---6---6---
-8/9---6---6-8---8-6-8---8-6-5--------6------------------------8----8---8-----
-------------------------------8-7--7-----------------------------------------
------------------------------------------------------------------------------
------------------------------------------------------------------------------
------------------------------------------------------------------------------
                                                                              

---5-6-5---8---10--1011-11-12-13-11-13-11---13-11-13-11-13-11-10--6-----------
-8-------8---8----8-------------------------------------------------6---8-6---
----------------------------------------------------------------------7-------
------------------------------------------------------------------------------
------------------------------------------------------------------------------
------------------------------------------------------------------------------
                                                                              

-----6-6-----6-8--------8-6---------|------7-9-7-9-7-9-10-10/11-9-7---77---7--
---6---8---8---10----10-----8-6-----|----7--------------------------9----9----
-7-----8-8-----10-10------------7---|--8--------------------------------------
----------------------------------8-|-----------------------------------------
------------------------------------|-----------------------------------------
------------------------------------|-----------------------------------------
                                                                              

---7---6-7-6---6-7-6-------------6-7-6-7-6-7-8-8/9-7-6--------6---6-----6-----
-9---9-------9-------9-7-6-----9-----------------------7-9/10---7---7-9---9---
---------------------------9-9------------------------------------------------
------------------------------------------------------------------------------
------------------------------------------------------------------------------
------------------------------------------------------------------------------
                                                                              

-----6----------------7-9-7-9-7-9-10-10/11-9-7---77---7---7---6-7-6---9---11--
-7-9---9-7-6--------7--------------------------9----9---9---9-------9---9-----
-------------9-8--8-----------------------------------------------------------
------------------------------------------------------------------------------
------------------------------------------------------------------------------
------------------------------------------------------------------------------
                                                                              

---1112-12-13-14-12-14-12---14-12-14-12-14-12-11--7-------------7-7-----7-9---
-9--------------------------------------------------7---9-7---7---9---9---11--
------------------------------------------------------8-----8-----9-9-----11--
------------------------------------------------------------------------------
------------------------------------------------------------------------------
------------------------------------------------------------------------------
                                                                              

-------9-7---------------7-7-----7-9--------9-7-------------7-7-----7-9-------
----11-----9-7---------7---9---9---11----11-----9-7-------7---9---9---11------
-11------------8-----8-----9-9-----11-11------------8---8-----9-9-----11-11---
-----------------9------------------------------------9-----------------------
------------------------------------------------------------------------------
------------------------------------------------------------------------------
                                                                              

----9-7--------------7-------|
-11-----9-7----------10------|
------------8--------8-------|
--------------9------9-------|
-----------------------------|
-----------------------------|
                                                                              
Chords

intro		A#

verse 1 	A#			F7

        	F7			A#

		A#	G	D#	A#	D#	F	A#

verse 2 	B			F#7

		F#7			B

		B	G#	E	B	E	F#	B

		E	F#	B	E	F#	B	B7






Calificar esta versión:
Aviso: Este fichero es trabajo propio de su transcriptor y representa su interpretación personal de la canción. El material contenido en esta página es para exclusivo uso privado, por lo que se prohibe su reproducción o retransmisión, así como su uso para fines comerciales.