School Days, The Runaways (tablatura)

Autor: datk95 | 16567 visualizaciones



Artist: The Runaways
Album: Waitin For The Night
Song: School Days




INTRO

e----------------------------------------------|
B----------------------------------------------|
G---------2------------7-----7-----7--7--------|  x4
D------2--2---2--x-x---7--x--7-----7--7--------|  
A------2--0---2--x-x---5--x--5-----5--5--------|
E------0------0--------------------------------|


e----------------------------------------------|
B----------------------------------------------|
G----------------------------------------------|
D------7-7-7-7-7-7-7-7-7-7-7-7-7-7-------------|
A------5-5-5-5-5-5-5-5-5-5-5-5-5-5-------------|
E----------------------------------------------|
   PM  . . . . . . . . . . . . . . 



VERSE

               Used to be a trouble maker
e-------------------------------------------------------|
B-------------------------------------------------------|
G----------------------------------------9-----9-9------|
D------9-9-9-9-9-9-9-9-9-9-9-9-9-9-------9-----9-9------|
A------7-7-7-7-7-7-7-7-7-7-7-7-7-7-------7-----7-7------|
E-------------------------------------------------------|
   PM  . . . . . . . . . . . . . . 


     

        Hated homework.....

e-----------------------------------------------|
B-----------------------------------------------|
G-----------------------------------------------|
D------9-9-9-9-9-9-9-9-9-9-9-9-9-9-------9------|
A------7-7-7-7-7-7-7-7-7-7-7-7-7-7-------9------|
E----------------------------------------7------|
  PM  . . . . . . . . . . . . . .  



       But now i have.......
e---------------------------------------------------|
B---------------------------------------------------|
G---------------------------------------------------|
D------9-9-9-9-9-9-9-9-9-9-9-9-9-9-------9----------|
A------9-9-9-9-9-9-9-9-9-9-9-9-9-9-------9----------|
E------7-7-7-7-7-7-7-7-7-7-7-7-7-7-------7----------|
   PM  . . . . . . . . . . . . . .        


        Im so rowdy...
e---------------------------------------------------|
B---------------------------------------------------|
G----------------------------------------9----------|
D------9-9-9-9-9-9-9-9-9-9-9-9-9-9-------9----------|
A------9-9-9-9-9-9-9-9-9-9-9-9-9-9-------7----------|
E------7-7-7-7-7-7-7-7-7-7-7-7-7-7------------------|
   PM  . . . . . . . . . . . . . .        


        Never read....
e-------------------------------------------------------|
B-------------------------------------------------------|
G----------------------------------------9-----9-9------|
D------9-9-9-9-9-9-9-9-9-9-9-9-9-9-------9-----9-9------|
A------7-7-7-7-7-7-7-7-7-7-7-7-7-7-------7-----7-7------|
E-------------------------------------------------------|
   PM  . . . . . . . . . . . . . . 




        Hated homework.....

e-----------------------------------------------|
B-----------------------------------------------|
G-----------------------------------------------|
D------9-9-9-9-9-9-9-9-9-9-9-9-9-9-------9------|
A------7-7-7-7-7-7-7-7-7-7-7-7-7-7-------9------|
E----------------------------------------7------|
  PM  . . . . . . . . . . . . . .  



       Now i live.......
e---------------------------------------------------|
B---------------------------------------------------|
G---------------------------------------------------|
D------9-9-9-9-9-9-9-9-9-9-9-9-9-9-------9----------|
A------9-9-9-9-9-9-9-9-9-9-9-9-9-9-------9----------|
E------7-7-7-7-7-7-7-7-7-7-7-7-7-7-------7----------|
   PM  . . . . . . . . . . . . . .    


       There`s a lot...
e--------------------------------------------------|
B--------------------------------------------------|
G--------------------------------------------------|
D------9-9-9-9-9-9-9-9-9-9-9-9-9-9-----------------|
A------9-9-9-9-9-9-9-9-9-9-9-9-9-9-----------------|
E------7-7-7-7-7-7-7-7-7-7-7-7-7-7-----------------|
   PM  . . . . . . . . . . . . . .





Calificar esta versión:
Aviso: Este fichero es trabajo propio de su transcriptor y representa su interpretación personal de la canción. El material contenido en esta página es para exclusivo uso privado, por lo que se prohibe su reproducción o retransmisión, así como su uso para fines comerciales.