Rock And Roll, The Runaways (tablatura)

Autor: datk95 | 26693 visualizaciones



Song: Rock And Roll
Artist: The Runaways
Album: The Runaways
	

INTRO

e------------------------------------------------------|
B------------------------------------------------------|
G------------------------------------------------------|  x2
D-------4-7-------2-5--------------------------4-7-----|
A---5-7-------3-5-----------2-5--5/7-5/7---5-7---------|
E-----------------------3-5----------------------------|




VERSE

e-------------------------------------|
B-------------------------------------|
G----7-7-----5-5-------------7-7------|  x4
D----7-7-----5-5-----5-5-----7-7------|
A----5-5-----3-3-----5-5-----5-5------|
E--------------------3-3--------------|




PRE-CHORUS

e--------------------------------|
B--------------------------------|
G---9----------------------------|  
D---9-----5-----7-----5----------|
A---7-----5-----7-----5----------|
E---------3-----5-----3----------|


CHORUS

e-----------------------|
B-----------------------|
G-----7-7---------------|  x4
D-----7-7-----5-5-------|
A-----5-5-----5-5-------|
E-------------3-3-------|




INTRO
VERSE
PRE-CHORUS
CHORUS



BRIDGE
e---------------------|
B---------------------|
G----7-7-----7-7------|  x4
D----7-7-----7-7------|
A----5-5-----5-5------|
E---------------------|




INTRO
PRE-CHORUS
CHORUS





Calificar esta versión:
Aviso: Este fichero es trabajo propio de su transcriptor y representa su interpretación personal de la canción. El material contenido en esta página es para exclusivo uso privado, por lo que se prohibe su reproducción o retransmisión, así como su uso para fines comerciales.