Mama Weer All Crazee Now, The Runaways (tablatura)

Autor: datk95 | 17649 visualizaciones



For the intro, Joan plays:

e|----------------------------------------|
B|----------------------------------------|
G|----------------------------------------|  
D|--5--7---5-7-5-3----5----3---5----3-----|       X3
A|--3--3---3-3-3-1----1----1---1----1-----|
E|----------------------------------------|

On the fourth time, Joan finishes with this:

e|--------------------|
B|--------------------|
G|--------------------|
D|--5--7---5-7-5-3----|
A|--3--3---3-3-3-1----|
E|--------------------|

Verse: x2

I don?t want to, drink my whiskey like you do
I don?t need to, spend my money but still do
e|-------------------------------------------|
B|-------------------------------------------|
G|-------------------------------------------|
D|--5-5-7-5--5-5-7-5-------------------------|
A|--3-3-3-3--3-3-3-3------3-3-5-3--3-3-5-3---|
E|------------------------1-1-1-1--1-1-1-1---|

e|-------------------------------------|
B|-------------------------------------|
G|-------------------------------------|  
D|--5--7---5-7-5-3----5----3---5----3--| 
A|--3--3---3-3-3-1----1----1---1----1--|
E|-------------------------------------|

Bridge:

Don't stop now a c-'mon
Another drop now c-'mon
I wanna lot now so c-'mon
e|--------------------------------------------|
B|--------------------------------------------|
G|--------------------------------------------|
D|-------------------3---3--5---3--3-3-5-3----|         X3
A|--3-3-5--3-3-3-5---1---1--1---1--1-1-1-1----|
E|--1-1-1--1-1-1-1----------------------------|

That's right
that's right
e|-------------------------------------|
B|-------------------------------------|
G|-------------------------------------|
D|--5--7--5-5--7----5--7--5-5--7-5-----|
A|--3--3--3-3--3----3--3--3-3--3-3-----|
E|-------------------------------------|

Chorus:

Mama, we?re all crazy now
e|---3----------------------------------------------|
B|---3----------------------------------------------|
G|---0----------------------------------------------|
D|---0------10----5--7---5--7-7-----5--7---5--7-7---|         X2
A|---2-------8----3--3---3--3-3-----3--3---3--3-3---|
E|---3----------------------------------------------|

On the third time, play this:

Mama, we?re all crazy now
e|---3-------------------------------------------------|
B|---3-------------------------------------------------|
G|---0-------------------------------------------------|
D|---0------10------5---7--5-7-5---3--5-3--3-3-5--3----|
A|---2-------8------3---3--3-3-3---1--1-1--1-1-1--1----|
E|---3-------------------------------------------------|

e|----------------------|
B|-----------------------|
G|----------------------|
D|--5--7---5-7-5-3------|
A|--3--3---3-3-3-1------|
E|----------------------|

Verse:

And you told me fool fire
water won't hurt me
And you tease me and all
my ladies desert me
e|--------------------------------------------|
B|--------------------------------------------|
G|--------------------------------------------|
D|--5-5-7-5--5-5-7-5--------------------------|
A|--3-3-3-3--3-3-3-3------3-3-5-3--3-3-5-3----|
E|------------------------1-1-1-1--1-1-1-1----|

e|--------------------------------------|
B|---------------------------------------|
G|--------------------------------------|  
D|--5--7---5-7-5-3----5----3---5----3---| 
A|--3--3---3-3-3-1----1----1---1----1---|
E|--------------------------------------|

Bridge:

Don't stop now a c-'mon
Another drop now c-'mon
I wanna lot now so c-'mon
e|--------------------------------------------|
B|--------------------------------------------|
G|--------------------------------------------|
D|-------------------3---3--5---3--3-3-5-3----|         X3
A|--3-3-5--3-3-3-5---1---1--1---1--1-1-1-1----|
E|--1-1-1--1-1-1-1----------------------------|

That's right
that's right
e|------------------------------------|
B|------------------------------------|
G|------------------------------------|
D|--5--7--5-5--7----5--7--5-5--7-5----|
A|--3--3--3-3--3----3--3--3-3--3-3----|
E|------------------------------------|

Chorus:

Mama, we?re all crazy now
e|---3----------------------------------------------|
B|---3-----------------------------------------------|
G|---0-----------------------------------------------|
D|---0------10----5--7---5--7-7-----5--7---5--7-7----|         X2
A|---2-------8----3--3---3--3-3-----3--3---3--3-3----|
E|---3-----------------------------------------------|

Mama, we?re all crazy now
e|---3------------------------------------------------|
B|---3------------------------------------------------|
G|---0------------------------------------------------|
D|---0------10------5---7--5-7-5---3--5-3--3-3-5--3---|       
A|---2-------8------3---3--3-3-3---1--1-1--1-1-1--1---|
E|---3------------------------------------------------|

e|--------------------------|
B|--------------------------|
G|--------------------------|
D|--5--7---5-7-5-3----------|
A|--3--3---3-3-3-1----------|
E|--------------------------|





Verse:

I don't want to drink my
whisky but still do
I had enough to fill up
"H" Hill's left shoe
e|-------------------------------------------|
B|--------------------------------------------|
G|--------------------------------------------|
D|--5-5-7-5--5-5-7-5--------------------------|
A|--3-3-3-3--3-3-3-3------3-3-5-3--3-3-5-3----|
E|------------------------1-1-1-1--1-1-1-1----|

e|---------------------------------------|
B|----------------------------------------|
G|---------------------------------------|  
D|--5--7---5-7-5-3----5----3---5----3----| 
A|--3--3---3-3-3-1----1----1---1----1----|
E|---------------------------------------|

Bridge:

Don't stop now a c-'mon
Another drop now c-'mon
I wanna lot now so c-'mon
e|-----------------------------------------------|
B|------------------------------------------------|
G|------------------------------------------------|
D|-------------------3---3--5---3--3-3-5-3--------|         X3
A|--3-3-5--3-3-3-5---1---1--1---1--1-1-1-1--------|
E|--1-1-1--1-1-1-1--------------------------------|

That's right
that's right
e|----------------------------------------|
B|----------------------------------------|
G|----------------------------------------|
D|--5--7--5-5--7----5--7--5-5--7-5--------|
A|--3--3--3-3--3----3--3--3-3--3-3--------|
E|----------------------------------------|

Chorus:

Mama, we?re all crazy now
e|---3-------------------------------------------------|
B|---3--------------------------------------------------|
G|---0--------------------------------------------------|
D|---0------10----5--7---5--7-7-----5--7---5--7-7-------|
A|---2-------8----3--3---3--3-3-----3--3---3--3-3-------|
E|---3--------------------------------------------------|




| /  slide up
| \  slide down
| h  hammer-on
| p  pull-off
| ~  vibrato
| +  harmonic
| x  Mute note
=====================================================





Calificar esta versión:
Aviso: Este fichero es trabajo propio de su transcriptor y representa su interpretación personal de la canción. El material contenido en esta página es para exclusivo uso privado, por lo que se prohibe su reproducción o retransmisión, así como su uso para fines comerciales.