Can't Stand Losing You, The Police (acordes)

Autor: Turtle66 | 23359 visualizaciones

asosamcdmgm


Intro: Dm Gm Dm Gm Dm Gm Dm Gm

e-1-1-5-5-3-3-3-3---
B-3-3-5-5-3-3-3-3---
G-2-2-5-5-3-3-3-3---         play this
D-------------------            x4
A-------------------
E-------------------

I've called you so many times today
And I guess it's all true what your girlfriends say
That you don't ever want to see me again
And your brother's gonna kill me and he's six feet ten


e----------------------------
B----------------------------
G-3------3------5------55-----
D-3--33--3--33--5--55--55-77--
A-1--33--1--33--3--55--33-77--
E----11-----11-----33-----55---

I guess you'd call it cowardice
But I'm not prepared to go on like this

A#
I can't, I can't
I can't stand losing
Gm
I can't, I can't
I can't stand losing
Am
I can't, I can't
I can't stand losing

Dm Gm Dm Gm Dm Gm Dm Gm

I can't stand losing
I can't stand losing
I can't stand losing
I can't stand losing


e-1-1-5-5-3-3-3-3---
B-3-3-5-5-3-3-3-3---
G-2-2-5-5-3-3-3-3---         
D-------------------         
A-------------------
E-------------------

I see you've sent my letters back
And my LP records and they're all scratched
I can't see the point in another day
When nobody listens to a word I say

e----------------------------
B----------------------------
G-3------3------5------55-----
D-3--33--3--33--5--55--55-77--
A-1--33--1--33--3--55--33-77--
E----11-----11-----33-----55---

You can call it lack of confidence
But to carry on living doesn't make no sense

A#
I can't, I can't
I can't stand losing
Gm
I can't, I can't
I can't stand losing
Am
I can't, I can't
I can't stand losing

A#
I can't, I can't
I can't stand losing
Gm
I can't, I can't
I can't stand losing
Am
I can't, I can't
I can't stand losing

aqui no se toca nada

I guess this is our last goodbye
And you don't care so I won't cry
But you'll be sorry when I'm dead
And all this guilt will be on your head

e----------------------------
B----------------------------
G-3------3------5------55-----
D-3--33--3--33--5--55--55-77--
A-1--33--1--33--3--55--33-77--
E----11-----11-----33-----55---

I guess you'd call it suicide
But I'm too full to swallow my pride

A#
I can't, I can't
I can't stand losing
Gm
I can't, I can't
I can't stand losing
Am
I can't, I can't
I can't stand losing
A#
I can't, I can't
I can't stand losing
Gm
I can't, I can't
I can't stand losing
Am
I can't, I can't
I can't stand losing

C
I can't, I can't
I can't stand losing
Am
I can't, I can't
I can't stand losing
A#
I can't, I can't
I can't stand losing
C
I can't, I can't
I can't stand losing
Am
I can't, I can't
I can't stand losing
A#
I can't, I can't
I can't stand losing

Espero que les guste esta cancion





Comentarios del colaborador: la mayor parte yo la saque le si le faltan detalles haganmelo saber

Calificar esta versión:
Aviso: Este fichero es trabajo propio de su transcriptor y representa su interpretación personal de la canción. El material contenido en esta página es para exclusivo uso privado, por lo que se prohibe su reproducción o retransmisión, así como su uso para fines comerciales.