18 And Life, The Police (tablatura)

Autor: blnriver | 30394 visualizaciones



-----1----------0--------------------1----------0---------------
--------3----------1--------------------3----------1------------
-----------2----------2-----2-3-2----------2----------2---0-2---
-0--------------------------------------------------------------
----------------------------------------------------------------
----------------------------------------------------------------


-1----------0----------
----3----------1-------      DO#-DO#-SI-DO#-DO#-SI#
-------2----------2----
-----------------------
-----------------------
-----------------------


repite todo de nuevo





Comentarios del colaborador: oJALA QUE LES GUSTE LO SAQUE DE OIDO. TAMBIEN PUEDEN ACER UN REm-LAm Y SALE IGUAL .

Calificar esta versión:
Aviso: Este fichero es trabajo propio de su transcriptor y representa su interpretación personal de la canción. El material contenido en esta página es para exclusivo uso privado, por lo que se prohibe su reproducción o retransmisión, así como su uso para fines comerciales.