You Are Gonna Go Far, Kid, The Offsprings (acordes)

Autor: what the hell | 27950 visualizaciones

a5c5f5g5


A5
Show me how to lie
F5
You?re getting better all the time
C5
And turning all against the one
G5
Is an art that?s hard to teach
A5
Another clever word
F5
Sets off an unsuspecting herd
C5
And as you get back into line
G5
A mob jumps to their feet


A5
Now dance, fucker, dance
F5
Man, he never had a chance
C5
And no one even knew
G5
It was really only you

And now you steal away

E -----------------------
B -------------------6-5-
G -----------------------
D ---------------7--7---7   
A -----------------------
E -----------------------

Take him out today

E -----------------------
B -------------------6-5-
G -----------------------
D ---------------7--7---7   
A -----------------------
E -----------------------

Nice work you did

E -----------------------
B -------------------6-5-
G ----------------------5
D ---------------7--7----   
A -----------------------
E -----------------------

                 G5x3
You?re gonna go far, kid

A5
With a thousand lies
F5
And a good disguise
C5
Hit ?em right between the eyes
G5
Hit ?em right between the eyes
A5
When you walk away
F5
Nothing more to say
C5
See the lightning in your eyes
G5
See ?em running for their lives

E -----------------------
B -----------------------
G -----------------------
D -------------------10-7   
A -7h8-7h8-7h8-7h8h10----
E -----------------------

A5
Slowly out of line
F5
And drifting closer in your sights
C5
So play it out I?m wide awake
G5
It?s a scene about me
A5
There?s something in your way
F5
And now someone is gonna pay
C5
And if you can?t get what you want
G5
Well it?s all because of me

A5
Now dance, fucker, dance
F5
Man, I never had a chance
C5
And no one even knew
G5
It was really only you

And now you?ll lead the way

E -----------------------
B -------------------6-5-
G -----------------------
D ---------------7--7---7   
A -----------------------
E -----------------------

Show the light of day

E -----------------------
B -------------------6-5-
G -----------------------
D ---------------7--7---7   
A -----------------------
E -----------------------

Nice work you did

E -----------------------
B -------------------6-5-
G -----------------------
D ---------------7--7---7   
A -----------------------
E -----------------------

You?re gonna go far, kid

   G5x3
Trust, deceived!

A5
With a thousand lies
F5
And a good disguise
C5
Hit ?em right between the eyes
C5
Hit ?em right between the eyes
A5
When you walk away
F5
Nothing more to say
C5
See the lightning in your eyes
G5
See ?em running for their lives

Solo:
E ------------------------------------------------
B -------------------------------------13-12------
G 12-10-12-14-12-10-12--12-10-12-14-12------12----
D ------------------------------------------------
A ------------------------------------------------
E ------------------------------------------------


E ---------------------------------------15-19-17-
B ---------------------------10-13--13-17---------
G 12-13--12p10h12-10p8h10--10-----12--------------
D ------------------------------------------------
A ------------------------------------------------
E ------------------------------------------------

Drum solo:
Solo de bateria:

Now dance, fucker, dance
He never had a chance
And no one even knew
It was really only you

So dance, fucker, dance
I never had a chance
                         G5x3
It was really only you

A5
With a thousand lies
F5
And a good disguise
C5
Hit ?em right between the eyes
G5
Hit ?em right between the eyes
A5
When you walk away
F5
Nothing more to say
C5
See the lightning in your eyes
G5
See ?em running for their lives

A5
Clever alibis
F5
Lord of the flies
C5
Hit ?em right between the eyes
G5
Hit ?em right between the eyes
A5
When you walk away
F5
Nothing more to say
C5
See the lightning in your eyes
G5
See ?em running for their lives

E -----------------------
B -----------------------
G -----------------------
D -------------------10-7   
A -7h8-7h8-7h8-7h8h10----
E -----------------------

Finish: A5
Termina:A5





Calificar esta versión:
Aviso: Este fichero es trabajo propio de su transcriptor y representa su interpretación personal de la canción. El material contenido en esta página es para exclusivo uso privado, por lo que se prohibe su reproducción o retransmisión, así como su uso para fines comerciales.