Vultures, The Offsprings (tablatura)

Autor: rockseba22 | 43370 visualizaciones



INTRO and VERSE
E------------------------------------
B------------------------------------
G------------------------------------
D-----2------2------2----------------
A--0----0-3----3-2----2-------2------
E-----------------------0---3---3----

PRE CHORUS
E--------------------
B--------------------
G--7---10-------5----
D--7---10---7---5----
A--5----8---7---3----
E-----------5--------
play this 3x then

E--------------------
B--------------------
G--9-----------------
D--9-----------------
A--7-----------------
E--------------------

This riff is played over the E5 chord above (2x)
E-----------------------------
B--12-13-12-13-12-13-12-13----
G-----------------------------
D-----------------------------
A-----------------------------
E-----------------------------

CHORUS
E------0------------0------------------
B--------------------------------------
G--------------------------------------
D--7-7-----10-10-10----2-2--2---5-5----
A--7-7-----10-10-10----2-2--2---5-5----
E--5-5------8--8--8----0-0--0---3-3----

E--------------------------------------
B--------------------------------------
G--7---9-------------------------------
D--7---9-------------------------------
A--5---7-------------------------------
E--------------------------------------

SOLO
E---------------------------------------------------------------
B---------------------------------------------------------------
G---------------------------------------------------------------
D--7--7/10---10-9-10-9\\--5-------7--7/10---10-10h12p10--10-9----
A---------------------------7-----------------------------------
E---------------------------------------------------------------

E---------------------------------------------------------------
B---------------------------------------------------------------
G---------------------------------------------------------------
D--10-9\\--5/7---7--7/10---10-9-10-9\\--5-------------------------
A----------------------------------------7----------------------
E---------------------------------------------------------------

E---------------------------------------------------------------
B---------------------------------------------------------------
G---------------------------------------------------------------
D--7--7/10---10-10h12p10--10-12/14---12-10-9--------------------
A---------------------------------------------------------------
E---------------------------------------------------------------





Calificar esta versión:
Aviso: Este fichero es trabajo propio de su transcriptor y representa su interpretación personal de la canción. El material contenido en esta página es para exclusivo uso privado, por lo que se prohibe su reproducción o retransmisión, así como su uso para fines comerciales.