Hit That, The Offsprings (tablatura)

Autor: JESUSMONTERIANO | 25750 visualizaciones



INTRO:

E--------------------------
B--------------------------
G--------------------------
D--5--7--3--3--3-----------
A--5--7--3--3--3-----------
E--3--5--1--1--1-----------

RIFF:

E---------------------------------------------------
B---------------------------------------------------
G-4-7-4-7-9-4-4-7-4-7-4-7-9-4-4-7-4-9-7-12-12-9-----
D---------------------------------------------------
A---------------------------------------------------
E---------------------------------------------------





Comentarios del colaborador: VACANA NO SOLO DELEN Y HAI LES SALE SALUDOS A LOS DEL MAXIMO MERCADO

Calificar esta versión:
Aviso: Este fichero es trabajo propio de su transcriptor y representa su interpretación personal de la canción. El material contenido en esta página es para exclusivo uso privado, por lo que se prohibe su reproducción o retransmisión, así como su uso para fines comerciales.